» » »

Bleeding Through - Truth Bass

Artists:  A B C D E F G H I J K L M N O P Q R S T U V W X Y Z # 

Truth Bass

(ver. 1) Click to play this song!
Bleeding Through
 Rating:
4.2/5 (5 votes)


 Truth lessons Tabs too difficult? Try these video lessons and learn fast
 
                -------------------------------------------------------------------------------
			     The Truth for Bass - Bleeding Through
-------------------------------------------------------------------------------


	I've had a bit of time on my hands lately and I noticed this site is lacking in
Bleeding Through tabs so I tabbed this one out the way I've been playing it.
. More coming later. Peace.

Tuning: Drop B, Five string Bass

Here we go...
 Part A 0:17
G|-----------------------------------|
D|-----------------------------------|
A|-----------------------------------|
E|-----------------------------------|
B|--/0~--33333-22222-----------------| x2

 B 0:36
G|------------------------------------------|
D|------------------------------------------|
A|------------------------------------------|
E|------------------------------------------|
B|---5-55-5/1-1\3-3\5-55-5/1-1\3-3\5-5-0~---| x2

C 1:12
G|------------------------------------------|
D|------------------------------------------|
A|--222------222----------------------------|
E|--------------------555------555----------|
B|------0000-----0000-----0000-----0000-----| x4

 D 1:53
G|--------------------------------------------------|
D|--------------------------------------------------|
A|--------------------5-3-2-------5-3-2-------------|
E|----------------2h5---------2h5-------------------|
B|--33333-22222-0-----------0-----------33333-22222-|

Play Part B agian x2 at 2:07.

 Part E 2:47
G|---------------------------------------------|
D|---------------------------------------------|
A|-----14~------16~------12~-------------------|
E|---14-------14-------14-------14-------------|
B|-12-------12-------12-------12---0~----------|


G|-------------------------------------------------------------|
D|-------------------14----------------------------------------|
A|------14~------16-----17-16h17p16------12--12h13p12----------|
E|----14-------14----------------------14----------------14----|
B|--12-------12----------------------12----------------12--0~--|

G|------------------------------------------------14----------------|
D|-------------------------------------14---------------------------|
A|------14--14-------14--14---14-16-17----17-16------17-16-17-16-14-|
E|----14--14--14---14--14--14---------------------------------------|
B|--12-----------12-------------------------------------------------|


G|----------------------------|
D|----------------------------|
A|------12--12h13p12----------|
E|----14----------------14----|
B|--12----------------12--0~--|

Near the end 3:42
G|---------------------------------------------------------------------|
D|-------------------------------------14------------------------------|
A|------14--14-------14--14---14-16-17----17-16-17-16-14-16-14-12------|
E|----14--14--14---14--14--14------------------------------------------|
B|--12-----------12----------------------------------------------------|

G|-------------------------|
D|-------------------------|
A|------12--12h13p12-------|
E|----14--------------14---|
B|--12--------------12--0--| let note ring out for rest of song

The end!! Enjoy!


| /  slide up
| \  slide down
| h  hammer-on
| p  pull-off
| ~  let note ring out
| +  harmonic
| x  Mute note
===============================================================================
            
Submit corrections



        Truth lessons Hard to play? Try these video lessons and learn fast Truth lessons
        
↑ Back to top | Tablatures and chords for acoustic guitar and electric guitar, ukulele, drums are parodies/interpretations of the original songs. You may use it for private study, scholarship, research or language learning purposes only