Home » B » Black Veil Brides »

Black Veil Brides - Shadows Die Tabs

Artists:  A B C D E F G H I J K L M N O P Q R S T U V W X Y Z # 

Shadows Die Tabs

(ver. 2) Click to play this song!
Black Veil Brides
[Intro]
 
D|---------------------------------------------------------------------------|
A|--8-8-8-8---12--12--12--12---13--13--13--13---10--10--10--10---12--12--12--|
F|-9-9-9-9--12--12--12--12---14--14--14--14---11--11--11--11---12--12--12----|
C|---------------------------------------------------------------------------|
G|---------------------------------------------------------------------------|
C|---------------------------------------------------------------------------|
 
D|---------------------------------------------------------------------------|
A|---12--8-8-8-8---10--10--10--10--7-7-7-7--5-7----8-8-8-8---12--12--12--12--|
F|-12---9-9-9-9--11--11--11--11---8-8-8-8---------9-9-9-9--12--12--12--12----|
C|---------------------------------------------------------------------------|
G|---------------------------------------------------------------------------|
C|---------------------------------------------------------------------------|
 
D|---------------------------------------------------------------------------|
A|---13--13--13--13---10--10--10--10---12--12--12--12--8-8-8-8---10--10--10--|
F|-14--14--14--14---11--11--11--11---12--12--12--12---9-9-9-9--11--11--11----|
C|---------------------------------------------------------------------------|
G|---------------------------------------------------------------------------|
C|---------------------------------------------------------------------------|
 
D|----------------------------------------2-0--------------------------------|
A|---10--7-7-7-7--5-7-8-5---------------4------------------------------------|
F|-11---8-8-8-8-----------5-----------5-------------(x2)---------------------|
C|--------------------------5-------5----------------------------------------|
G|----------------------------7-3--------------------------------------------|
C|--------------------------------9------------------------------------------|
 
D|---------------------------------------------------------------------------|
A|---------------------------------------------------------------------------|
F|---------------------------------------------------------------------------|
C|-2-------------------------------------------------------------------------|
G|-2-------2-7-2------2-3-2-------1-2-1-------1-2-1-------2-7-2-------2-3-2--|
C|-2---2-5-------5-2-5------5-1-4-------4-1-4-------4-2-5-------2-5-2--------|
 
D|---------------------------------------------------------------------------|
A|---------------------------------------------------------------------------|
F|---------------------------------------------------------------------------|
C|---------------------------------------------------------------------------|
G|--------1-2-1-------1-2-1--------------------------------------------------|
C|--5-1-4-------4-1-4-------4------------------------------------------------|
 
 
 
 
 
 
[Verse 1]
 
D|---------------------------------------------------------------------------|
A|---------------------------------------------------------------------------|
F|---------------------------------------------------------------------------|
C|------------------------------------------------------------1--------------|
G|--2--2-2-2-2--5--1--1-1-1-1--1-1-1-2--2-2-2-2-/7-6--2-0-2-3---3-2----------|
C|--2--2-2-2-2--5--1--1-1-1-1--1-1-1-2--2-2-2-2------------------------------|
 
D|---------------------------------------------------------------------------|
A|---------------------------------------------------------------------------|
F|---------------------------------------------------------------------------|
C|---------------------------------------------9-------10-------9------------|
G|--2--2-2-2-2--5--1--1-1-1-1--1-1-1---------------------------------12------|
C|--2--2-2-2-2--5--1--1-1-1-1--1-1-1--10-10-10---10-10----10-10---10---------|
 
D|---------------------------------------------------------------------------|
A|---------------------------------------------------------------------------|
F|---------------------------------------------------------------------------|
C|--------7-----9----7-------------------------------------------------------|
G|-----------------------9---------------------------------------------------|
C|--9-9-9---9-9---9-9--9-----------------------------------------------------|
 
D|---------------------------------------------------------------------------|
A|---------------------------------------------------------------------------|
F|---------------------------------------------------------------------------|
C|------------------------------------------------------------1--------------|
G|--2--2-2-2-2--5--1--1-1-1-1--1-1-1-2--2-2-2-2-/7-6--2-0-2-3---3-2----------|
C|--2--2-2-2-2--5--1--1-1-1-1--1-1-1-2--2-2-2-2------------------------------|
 
D|---------------------------------------------------------------------------|
A|---------------------------------------------------------------------------|
F|---------------------------------------------------------------------------|
C|---------------------------------------------9-------10-------9------------|
G|--2--2-2-2-2--5--1--1-1-1-1--1-1-1---------------------------------12------|
C|--2--2-2-2-2--5--1--1-1-1-1--1-1-1--10-10-10---10-10----10-10---10---------|
 
D|---------------------------------------------------------------------------|
A|---------------------------------------------------------------------------|
F|---------------------------------------------------------------------------|
C|--------7------------------------------------------------------------------|
G|---------------2-3-2-0---------2-7-2-------2-3-2-------1-2-1-------1-2-1---|
C|--9-9-9---9-9----------5-4-2-5-------5-2-5-------5-1-4-------4-1-4--------4|
 
D|---------------------------------------------------------------------------|
A|---------------------------------------------------------------------------|
F|---------------------------------------------------------------------------|
C|---------------------------------------------------------------------------|
G|-----2-7-2-------2-3-2-------1-2-1-------1-2-1-----------------------------|
C|-2-5-------5-2-5-------5-1-4-------4-1-4--------4-1------------------------|
 
 
 
[Chorus]
 
D|---------------------------------------------------------------------------|
A|---------------------------------------------------------------------------|
F|---------------------------------------------------------------------------|
C|---------------------4/5--5-5-5-5--5-5-5-------------------3/4--4----------|
G|--2--2-2-2-2--2-2-2--2/3--3-3-3-3--3-3-3-5--5-5-5-5--5-5-5-1/2--2--2-3-2-0-|
C|--2--2-2-2-2--2-2-2----------------------5--5-5-5-5--5-5-5-----------------|
 
D|---------------------------------------------------------------------------|
A|---------------------------------------------------------------------------|
F|---------------------------------------------------------------------------|
C|--------------------------4/5--5-5-5-5--5-5-5------------------------------|
G|-------2--2-2-2-2--2-2-2--2/3--3-3-3-3--3-3-3-5--5-5-5-5--5-5-5-1--1-1-1-4-|
C|--5-4--2--2-2-2-2--2-2-2----------------------5--5-5-5-5--5-5-5-1--1-1-1-4-|
 
 
D|---------------------------------------------------------------------------|
A|---------------------------------------------------------------------------|
F|---------------------------------------------------------------------------|
C|---------------------------------------------------------------------------|
G|-4-4-4---------------------------------------------------------------------|
C|-4-4-4---------------------------------------------------------------------|
 
D|---------------------------------------------------------------------------|
A|---------------------------------------------------------------------------|
F|---------------------------------------------------------------------------|
C|---------------------4/5--5-5-5-5--5-5-5-------------------3/4--4----------|
G|--2--2-2-2-2--2-2-2--2/3--3-3-3-3--3-3-3-5--5-5-5-5--5-5-5-1/2--2--2-3-2-0-|
C|--2--2-2-2-2--2-2-2----------------------5--5-5-5-5--5-5-5-----------------|
 
D|---------------------------------------------------------------------------|
A|---------------------------------------------------------------------------|
F|---------------------------------------------------------------------------|
C|--------------------------4/5--5-5-5-5--5-5-5------------------------------|
G|-------2--2-2-2-2--2-2-2--2/3--3-3-3-3--3-3-3-5--5-5-5-5--5-5-5-1--1-1-1-4-|
C|--5-4--2--2-2-2-2--2-2-2----------------------5--5-5-5-5--5-5-5-1--1-1-1-4-|
 
D|---------------------------------------------------------------------------|
A|---------------------------------------------------------------------------|
F|---------------------------------------------------------------------------|
C|---------------------------------------------------------------------------|
G|-4-4-4---------------------------------------------------------------------|
C|-4-4-4---------------------------------------------------------------------|
 
 
 
[Post-Chorus]
 
 
e|---------------------------------------------------------------------------|
B|---------------------------------------------------------------------------|
G|---------------------------------------------------------------------------|
D|---------------------------------------------------------------------------|
A|--2--2-2-2-2--2-2-2-2--2-2-2--2-3-2-0-----2--2-2-2-2--2-2-2-2--2-2-2-------|
E|--2--2-2-2-2--2-2-2-2--2-2-2----------4-3-2--2-2-2-2--2-2-2-2--2-2-2-------|
 
e|---------------------------------------------------------------------------|
B|---------------------------------------------------------------------------|
G|---------------------------------------------------------------------------|
D|---------------------------------------------------------------------------|
A|--1-1-1-1-1-1-1-1----------------------------------------------------------|
E|--1-1-1-1-1-1-1-1----------------------------------------------------------|
 
 
[Verse 2]
 
D|---------------------------------------------------------------------------|
A|---------------------------------------------------------------------------|
F|---------------------------------------------------------------------------|
C|------------------------------------------------------------1--------------|
G|--2--2-2-2-2--5--1--1-1-1-1--1-1-1-2--2-2-2-2-/7-6--2-0-2-3---3-2----------|
C|--2--2-2-2-2--5--1--1-1-1-1--1-1-1-2--2-2-2-2------------------------------|
 
D|---------------------------------------------------------------------------|
A|---------------------------------------------------------------------------|
F|---------------------------------------------------------------------------|
C|---------------------------------------------9-------10-------9------------|
G|--2--2-2-2-2--5--1--1-1-1-1--1-1-1---------------------------------12------|
C|--2--2-2-2-2--5--1--1-1-1-1--1-1-1--10-10-10---10-10----10-10---10---------|
 
D|---------------------------------------------------------------------------|
A|---------------------------------------------------------------------------|
F|---------------------------------------------------------------------------|
C|--------7------------------------------------------------------------------|
G|---------------2-3-2-0---------2-7-2-------2-3-2-------1-2-1-------1-2-1---|
C|--9-9-9---9-9----------5-4-2-5-------5-2-5-------5-1-4-------4-1-4--------4|
 
D|---------------------------------------------------------------------------|
A|---------------------------------------------------------------------------|
F|---------------------------------------------------------------------------|
C|---------------------------------------------------------------------------|
G|-----2-7-2-------2-3-2-------1-2-1-------1-2-1-----------------------------|
C|-2-5-------5-2-5-------5-1-4-------4-1-4--------4-1------------------------|
 
 
 
 
[Chorus]
 
 
D|---------------------------------------------------------------------------|
A|---------------------------------------------------------------------------|
F|---------------------------------------------------------------------------|
C|---------------------4/5--5-5-5-5--5-5-5-------------------3/4--4----------|
G|--2--2-2-2-2--2-2-2--2/3--3-3-3-3--3-3-3-5--5-5-5-5--5-5-5-1/2--2--2-3-2-0-|
C|--2--2-2-2-2--2-2-2----------------------5--5-5-5-5--5-5-5-----------------|
 
D|---------------------------------------------------------------------------|
A|---------------------------------------------------------------------------|
F|---------------------------------------------------------------------------|
C|--------------------------4/5--5-5-5-5--5-5-5------------------------------|
G|-------2--2-2-2-2--2-2-2--2/3--3-3-3-3--3-3-3-5--5-5-5-5--5-5-5-1--1-1-1-4-|
C|--5-4--2--2-2-2-2--2-2-2----------------------5--5-5-5-5--5-5-5-1--1-1-1-4-|
 
D|---------------------------------------------------------------------------|
A|---------------------------------------------------------------------------|
F|---------------------------------------------------------------------------|
C|---------------------------------------------------------------------------|
G|-4-4-4-----------------------------2-3-3-3-3-3-3-3-3-3-3-3-3-3-3-----------|
C|-4-4-4---2-2-2-2-2-2-2-2-2-2-2-2-5-------------------------------5-5-5-5-5-|
 
D|---------------------------------------------------------------------------|
A|---------------------------------------------------------------------------|
F|---------------------------------------------------------------------------|
C|---------------------------------------------------------------------------|
G|---------------2-2-2-2-2-2-2-3-2-0-------------------------------2-7-7-7-7-|
C|-5-5-5-5-5-5-5---------------------5-4-2-2-2-2-2-2-2-2-2-2-2-2-5-----------|
 
D|---------------------------------------------------------------------------|
A|---------------------------------------------------------------------------|
F|---------------------------------------------------------------------------|
C|---------------------------------------------------------------------------|
G|-7-7-7-7-7-7-7-7-----------------------------------------------------------|
C|-----------------5-5-5-5-5-5-5-5-5-5-5-5-1-1-1-1-1-1-4-4-4-4-4-4-----------|
 
 
[Bridge]
(played during talking part)
D|---------------------------------------------------------------------------|
A|---------------------------------------------------------------------------|
F|---------------------------------------------------------------------------|
C|--------4--9-8-8-8--8-8-8--8-8-8--8-8-8------------------------------------|
G|--2--5--2--7-6-6-6--6-6-6--6-6-6--6-6-6------------------------------------|
C|--2--5---------------------------------------------------------------------|
 
D|---------------------------------------------------------------------------|
A|---------------------------------------------------------------------------|
F|---------------------------------------------------------------------------|
C|--------4--9-8-8-8--8-8-8--8-8-8--8-8-8------------------------------------|
G|--2--5--2--7-6-6-6--6-6-6--6-6-6--6-6-6------------------------------------|
C|--2--5---------------------------------------------------------------------|
 
D|---------------------------------------------------------------------------|
A|---------------------------------------------------------------------------|
F|---------------------------------------------------------------------------|
C|--------4--9-8-8-8--8-8-8--8-8-8--8-8-8------------------------------------|
G|--2--5--2--7-6-6-6--6-6-6--6-6-6--6-6-6------------------------------------|
C|--2--5---------------------------------------------------------------------|
 
D|---------------------------------------------------------------------------|
A|---------------------------------------------------------------------------|
F|---------------------------------------------------------------------------|
C|-5--5-7-5-4----------------------------------------------------------------|
G|-3--3-5-3-2--5-4-----------------------------------------------------------|
C|-------------5-4-----------------------------------------------------------|
 
D|---------------------------------------------------------------------------|
A|---------------------------------------------------------------------------|
F|---------------------------------------------------------------------------|
C|--------4--9-8-8-8--8-8-8--8-8-8--8-8-8------------------------------------|
G|--2--5--2--7-6-6-6--6-6-6--6-6-6--6-6-6------------------------------------|
C|--2--5---------------------------------------------------------------------|
 
D|---------------------------------------------------------------------------|
A|---------------------------------------------------------------------------|
F|---------------------------------------------------------------------------|
C|--------4--9-8-8-8--8-8-8--8-8-8--8-8-8------------------------------------|
G|--2--5--2--7-6-6-6--6-6-6--6-6-6--6-6-6------------------------------------|
C|--2--5---------------------------------------------------------------------|
 
D|---------------------------------------------------------------------------|
A|---------------------------------------------------------------------------|
F|---------------------------------------------------------------------------|
C|--------4--9-8-8-8--8-8-8--8-8-8--8-8-8------------------------------------|
G|--2--5--2--7-6-6-6--6-6-6--6-6-6--6-6-6------------------------------------|
C|--2--5---------------------------------------------------------------------|
 
D|---------------------------------------------------------------------------|
A|---------------------------------------------------------------------------|
F|---------------------------------------------------------------------------|
C|-5--5-7-5-4----------------------------------------------------------------|
G|-3--3-5-3-2--5-4-2~---------------------------------------------------------|
C|-------------5-4-2~---------------------------------------------------------|
 
(this part is the same as the beginning)
D|---------------------------------------------------------------------------|
A|--8-8-8-8---12--12--12--12---13--13--13--13---10--10--10--10---12--12--12--|
F|-9-9-9-9--12--12--12--12---14--14--14--14---11--11--11--11---12--12--12----|
C|---------------------------------------------------------------------------|
G|---------------------------------------------------------------------------|
C|---------------------------------------------------------------------------|
 
D|---------------------------------------------------------------------------|
A|---12--8-8-8-8---10--10--10--10--7-7-7-7--5-7----8-8-8-8---12--12--12--12--|
F|-12---9-9-9-9--11--11--11--11---8-8-8-8---------9-9-9-9--12--12--12--12----|
C|---------------------------------------------------------------------------|
G|---------------------------------------------------------------------------|
C|---------------------------------------------------------------------------|
 
D|---------------------------------------------------------------------------|
A|---13--13--13--13---10--10--10--10---12--12--12--12--8-8-8-8---10--10--10--|
F|-14--14--14--14---11--11--11--11---12--12--12--12---9-9-9-9--11--11--11----|
C|---------------------------------------------------------------------------|
G|---------------------------------------------------------------------------|
C|---------------------------------------------------------------------------|
 
D|----------------------------------------2-0--------------------------------|
A|---10--7-7-7-7--5-7-8-5---------------4------------------------------------|
F|-11---8-8-8-8-----------5-----------5--------------------------------------|
C|--------------------------5-------5----------------------------------------|
G|----------------------------7-3--------------------------------------------|
C|--------------------------------9------------------------------------------|
 
D|---------------------------------------------------------------------------|
A|---------------------------------------------------------------------------|
F|---------------------------------------------------------------------------|
C|---------------------------------------------------------------------------|
G|--2-2--5-5--1-1-----------------------2-2--5-5--1-1------------------------|
C|--2-2--5-5--1-1--9-10-9-10-9-10-9-10--2-2--5-5--1-1--9-10-9-10-9-10--------|
 
D|---------------------------------------------------------------------------|
A|---------------------------------------------------------------------------|
F|---------------------------------------------------------------------------|
C|---------------------------------------------------------------------------|
G|--2--2-2-2-2--5--5-5-5-5--1--1-1-1-1---------------------------------------|
C|--2--2-2-2-2--5--5-5-5-5--1--1-1-1-1--9-10-9-10-9-10-----------------------|
 
D|---------------------------------------------------------------------------|
A|---------------------------------------------------------------------------|
F|---------------------------------------------------------------------------|
C|-----------------------------------------------------------------------7---|
G|--2--2-2-2-2--5--5-5-5-5--1--1-1-1-1-----------------6-7-6-7-6-7-6-6-6-----|
C|--2--2-2-2-2--5--5-5-5-5--1--1-1-1-1--9-10-9-10-9-10-----------------------|
 
D|---------------------------------------------------------------------------|
A|---------------------------------------------------------------------------|
F|---------------------------------------------------------------------------|
C|-----9-----7--9-----7------------------------------------------------------|
G|-6-6---6-6--6---6-6---6-6--------------------------------------------------|
C|---------------------------------------------------------------------------|
 
 
 
 
[Chorus]
 
D|---------------------------------------------------------------------------|
A|---------------------------------------------------------------------------|
F|---------------------------------------------------------------------------|
C|---------------------4/5--5-5-5-5--5-5-5-------------------3/4--4----------|
G|--2--2-2-2-2--2-2-2--2/3--3-3-3-3--3-3-3-5--5-5-5-5--5-5-5-1/2--2--2-3-2-0-|
C|--2--2-2-2-2--2-2-2----------------------5--5-5-5-5--5-5-5-----------------|
 
D|---------------------------------------------------------------------------|
A|---------------------------------------------------------------------------|
F|---------------------------------------------------------------------------|
C|--------------------------4/5--5-5-5-5--5-5-5------------------------------|
G|-------2--2-2-2-2--2-2-2--2/3--3-3-3-3--3-3-3-5--5-5-5-5--5-5-5-1--1-1-1-4-|
C|--5-4--2--2-2-2-2--2-2-2----------------------5--5-5-5-5--5-5-5-1--1-1-1-4-|
 
D|---------------------------------------------------------------------------|
A|---------------------------------------------------------------------------|
F|---------------------------------------------------------------------------|
C|---------------------------------------------------------------------------|
G|-4-4-4-----------------------------2-3-3-3-3-3-3-3-3-3-3-3-3-3-3-----------|
C|-4-4-4---2-2-2-2-2-2-2-2-2-2-2-2-5-------------------------------5-5-5-5-5-|
 
D|---------------------------------------------------------------------------|
A|---------------------------------------------------------------------------|
F|---------------------------------------------------------------------------|
C|---------------------------------------------------------------------------|
G|---------------2-2-2-2-2-2-2-3-2-0-------------------------------2-7-7-7-7-|
C|-5-5-5-5-5-5-5---------------------5-4-2-2-2-2-2-2-2-2-2-2-2-2-5-----------|
 
D|---------------------------------------------------------------------------|
A|---------------------------------------------------------------------------|
F|---------------------------------------------------------------------------|
C|---------------------------------------------------------------------------|
G|-7-7-7-7-7-7-7-7-----------------------------------------------------------|
C|-----------------5-5-5-5-5-5-5-5-5-5-5-5-1-1-1-1-1-1-4-4-4-4-4-4-----------|
 
 
 
 
[Outro]
 
D|---------------------------------------------------------------------------|
A|---------------------------------------------------------------------------|
F|---------------------------------------------------------------------------|
C|-----------------------------------------4-4-4-4-4-4-4-4-------------------|
G|--2-2-2-2-2-2--5-5-5-5-5-5--1-1-1-1-1-1--2-2-2-2-2-2-2-2-------------------|
C|--2-2-2-2-2-2--5-5-5-5-5-5--1-1-1-1-1-1------------------------------------|
 
D|---------------------------------------------------------------------------|
A|---------------------------------------------------------------------------|
F|---------------------------------------------------------------------------|
C|-----------------------------------------4-4-4-4-4-4-4-4-------------------|
G|--2-2-2-2-2-2--5-5-5-5-5-5--1-1-1-1-1-1--2-2-2-2-2-2-2-2-------------------|
C|--2-2-2-2-2-2--5-5-5-5-5-5--1-1-1-1-1-1------------------------------------|
 
D|---------------------------------------------------------------------------|
A|---------------------------------------------------------------------------|
F|---------------------------------------------------------------------------|
C|-----------------------------------------4-4-4-4-4-4-4-4-------------------|
G|--2-2-2-2-2-2--5-5-5-5-5-5--1-1-1-1-1-1--2-2-2-2-2-2-2-2-------------------|
C|--2-2-2-2-2-2--5-5-5-5-5-5--1-1-1-1-1-1------------------------------------|
 
(this is played underneath)
D|---------------------------------------------------------------------------|
A|--8-8-8-8---12--12--12--12---13--13--13--13---10--10--10--10---12--12--12--|
F|-9-9-9-9--12--12--12--12---14--14--14--14---11--11--11--11---12--12--12----|
C|---------------------------------------------------------------------------|
G|---------------------------------------------------------------------------|
C|---------------------------------------------------------------------------|
 
D|---------------------------------------------------------------------------|
A|---12--8-8-8-8---10--10--10--10--7-7-7-7--5-7----8-8-8-8---12--12--12--12--|
F|-12---9-9-9-9--11--11--11--11---8-8-8-8---------9-9-9-9--12--12--12--12----|
C|---------------------------------------------------------------------------|
G|---------------------------------------------------------------------------|
C|---------------------------------------------------------------------------|
 
D|---------------------------------------------------------------------------|
A|---13--13--13--13---10--10--10--10---12--12--12--12--8-8-8-8---10--10--10--|
F|-14--14--14--14---11--11--11--11---12--12--12--12---9-9-9-9--11--11--11----|
C|---------------------------------------------------------------------------|
G|---------------------------------------------------------------------------|
C|---------------------------------------------------------------------------|
 
D|----------------------------------------2-0--------------------------------|
A|---10--7-7-7-7--5-7-8-5---------------4------------------------------------|
F|-11---8-8-8-8-----------5-----------5--------------------------------------|
C|--------------------------5-------5----------------------------------------|
G|----------------------------7-3--------------------------------------------|
C|--------------------------------9------------------------------------------|
            
Submit corrections

↑ Back to top | Tablatures and chords for acoustic guitar and electric guitar, ukulele, drums are parodies/interpretations of the original songs. You may use it for private study, scholarship, research or language learning purposes only