Home » B » Black Lips »

Black Lips - Lock And Key Bass

Artists:  A B C D E F G H I J K L M N O P Q R S T U V W X Y Z # 

Lock And Key Bass

(ver. 1) Click to play this song!
Black Lips

Verse
G-----------------------------------------|
D-----------------------------------------|
A----5----3-------------------------------|
E--33-(3)3-(3)-66-33-6-66-----------------|

Chorus 1 
G-----------------------------------------|
D-----------------------------------------|
A-----------------------------------------|
E--3-333-6--------------------------------|
Mud starts drippin'...

Chorus 2 
G-----------------------------------------|
D-----------------------------------------|
A-----------------------------------------|
E--3-333-1--------------------------------|
Ohooooo, ohooooo...
            
Submit corrections

↑ Back to top | Tablatures and chords for acoustic guitar and electric guitar, ukulele, drums are parodies/interpretations of the original songs. You may use it for private study, scholarship, research or language learning purposes only