» » »

Black Label Society - Lost Heaven Tabs

Artists:  A B C D E F G H I J K L M N O P Q R S T U V W X Y Z # 

Lost Heaven Tabs

(ver. 1) Click to play this song!
Black Label Society
 Rating:
4/5 (4 votes)

 Lost Heaven lessons Tabs too difficult? Try these video lessons and learn fast
 
                Lost Heaven by Black Label Society
1919 Eternal
Thanks for writing this song Zakk it rules

Into/Verse
e--------------------------------------|---------------------------------|
b--------------------------------------|---------------------------------|
g-------------4-----4-----4----4-------|--------0------------0-----------|
d-------6--------6-----6----6----6-----|----4-3---4-3-----4-3--4-3-------|
a—---4--------------4-----4----4----4--|---------------------------------|
D--------------------------------------|--4-------------4----------------|

Chorus                             ?=just strum away
e----------------------x3-|---- ------------------|---------------------|
b-------------------------|-----------------------|---------------------|
g---4---------------------|-----4-----------------|----4-------------4--|
d---6—x?----------4---x?--|-----6---x?--4-5-4-2---|---6-----5----4---6x?|
a---4-------------4-------|-----4-------4-5-4-2---|--4----5----4-----4--|
D-----------------4-------|-------------4-5-4-2---|------5----4---------|
                                       ending 1                  ending 2
This is all, sorry if it’s wrong, it is my first tab though, I’m pretty sure it’s right
            
Submit corrections


        Lost Heaven lessons Hard to play? Try these video lessons and learn fast Lost Heaven lessons
        
↑ Back to top | Tablatures and chords for acoustic guitar and electric guitar, ukulele, drums are parodies/interpretations of the original songs. You may use it for private study, scholarship, research or language learning purposes only