» » »

Black Label Society - Like A Bird Tabs

Artists:  A B C D E F G H I J K L M N O P Q R S T U V W X Y Z # 

Like A Bird Tabs

(ver. 1) Click to play this song!
Black Label Society
 Rating:
4/5 (4 votes)

 Like A Bird lessons Tabs too difficult? Try these video lessons and learn fast
 
                *Standard Tuning
*Listen to record for exact timing
*Alrighty, this tab is (I think) correct for the most part. It's a ***ing awesome
 song, Zakk Wylde once again proves that not only can he shred those harmonics,
 but he also knows when and how to mellow it out and write a badass acoustic song.
*KEY --
        d = down-stroke
        u = up-stroke
	h = hammer on
	p = pull off
	/ = slide up
	\ = slide down
	. = palm mute
        x = mute
       () = ghost note 


Intro --

			 u       u
E||--------------------------------------------------||
B||------3-------1-------1-------1-------------------||
G||----2-------2-------0-0-------0------0-------0----||
D||--0-------3----------------------------0-------0--||
A||------------------3--------------3-2--------------||
E||-----------------------------------------3-1------||

			 u      d       d   u 
E||---------------------------------------------||
B||------3-------1-------1------1-------1---1---||
G||----2-------2---------0----0-0-------0---0---||
D||--0-------3--------------------------2---2---||
A||-------------------------3-----------3---3---||
E||---------------------------------------------||


Drum and bass enter -- (It's something like this, it's not perfect)

      u         u   d   u   d   d    d     u         d u
E||--(0)-------(0)-(0)-(0)-(0)-(0)--(0)---(0)-----------------------------||
B||---3-----3---3---3---3---1---1----1-----1------------------------------||
G||---2---------2---2---2---0---0h2--0-----0-----0---0-0-----0-------0----||
D||---0---0-----0---0---0---3---3----3-----3-----0h2-0-0-------0-------0--||
A||--------------------------------------------3---------3-2--------------||
E||--------------------------------------------------------------3-1------||

*The verses are just variations of the piece above.

Chorus -- (It's a little difficult to tell the strumming pattern since a piano is
involved as well, but here are the chords)

E||-------------------------3--||
B||--1---1---3------1---1---3--||
G||--2---0---2------2---0---0--||
D||--3---2---0------3---2---0--||
A||------3--------------3---x--||
E||-------------------------3--||

Solo -- (This is my best attempt at the solo, it drove me crazy not being able
to get that one part but I got the rest of it, see what y'all can do with it)

E||--8-------------------8/10-8--------------------||
B||----8/10-8\6--8-6-------------8/10-8--10\8p6----||
G||------------------7--------------------------7--||     <- Repeat
D||------------------------------------------------||
A||------------------------------------------------||
E||------------------------------------------------||

E||--12-13-12-10-12--8-10--7-8--5-7-??????????------------------------||
B||---------------------------------??????????----------------8/10-6--||
G||---------------------------------??????????-12\10-7--10-12---------||
D||-------------------------------------------------------------------||
A||-------------------------------------------------------------------||
E||-------------------------------------------------------------------||

E||------------------------------------||
B||--5-6-3--5-6-3--3-5-6-8-10-8-6-5-3--||
G||------------------------------------||
D||------------------------------------||
A||------------------------------------||
E||------------------------------------||
            
Submit corrections


        Like A Bird lessons Hard to play? Try these video lessons and learn fast Like A Bird lessons
        
↑ Back to top | Tablatures and chords for acoustic guitar and electric guitar, ukulele, drums are parodies/interpretations of the original songs. You may use it for private study, scholarship, research or language learning purposes only