» » »

Black Label Society - Hey You (Batch Of Lies) Tabs

Artists:  A B C D E F G H I J K L M N O P Q R S T U V W X Y Z # 

Hey You (Batch Of Lies) Tabs

(ver. 1) Click to play this song!
Black Label Society
 Rating:
4/5 (4 votes)

 Hey You (Batch Of Lies) lessons Tabs too difficult? Try these video lessons and learn fast
 
                Drop D Tuning

^=pinch harmonic
b=bend
/=slide
p=pull off
h=hammer on
~=vibrato
PM=palm mute

Intro 2x
|-----------------------------------------------------------------------------------|
|-----------------------------------------------------------------------------------|
|-----------------------------------------------------------------------------------|
|-----------------------------------------------------------------------------------|
|---0--2--3--------------------5-3--------------------------------------------------|
|---0--2--3---5^--5^--3^--5^---5-3--------------------------------------------------|

|-----------------------------------------------------------------------------------|
|-----------------------------------------------------------------------------------|
|-----------------------------------------------------------------------------------|
|-----------------------------------------------------------------------------------|
|---0-0-0-0-0--2--3---3-5-5-3-5-5-3-/6-6-6-6-6\-5-3---0-----------------------------|
|---0-0-0-0-0--2--3---3-5-5-3-5-5-3/6-6-6-6-6-6\5-3---0-----------------------------|

Chrous 2x
|------1--------3/5\3-----0--------3------1---------|
|----3--3------3-----------1--------3------1--------|
|--2-----2----2---------0---0---------------2-------|
|-0--------0-3---------2-----2----------------------|
|---------------------3-----------------------------|
|------------------------------3/5-----3------------|
 
 
|-----1-----3/5\3-----0-------3---------------------|
|----3-3---3-----------1------3---------------------|
|---2---2-2---------0---0-----4---------------------|
|--0-----3---------2-----2--------------------------|
|-----------------3-----------5---------------------|
|-0---------------------------5---------------------|
                              let ring
 
|------1--------3/5\3-----0--------3------1---------|
|----3--3------3-----------1--------3------1--------|
|--2-----2----2---------0---0---------------2-------|
|-0--------0-3---------2-----2----------------------|
|---------------------3-----------------------------|
|------------------------------3/5-----3------------|
 
 
|-----1-----3/5\3----------------------|
|----3-3---3---------------------------|
|---2---2-2---------5-5-5-5-5-5-5-5-5--|
|--0-----3----------5-5-5-5-5-5-5-5-5--|
|-------------------3-3-3-3-3-3-3-3-3--|
|-0------------------------------------|
                    PM          

Chorus 2x

|-----------------------------------------------------------------------------------|
|-----------------------------------------------------------------------------------|
|-----------------------------------------------------------------------------------|
|-----------------------------------------------------------------------------------|
|---0--2--3--------------------5-3--------------------------------------------------|
|---0--2--3---5^--5^--3^--5^---5-3--------------------------------------------------|

|-----------------------------------------------------------------------------------|
|-----------------------------------------------------------------------------------|
|-----------------------------------------------------------------------------------|
|-----------------------------------------------------------------------------------|
|---0-0-0-0-0--2--3---3-5-5-3-5-5-3-/6-6-6-6-6\-5-3---0-----------------------------|
|---0-0-0-0-0--2--3---3-5-5-3-5-5-3/6-6-6-6-6-6\5-3---0-----------------------------|

Solo
|-----------------------------------------------------------------------------------|
|-----------------------------------------------------------------------------------|
|--9~--------------7~----------------5~---------------------------------------------|
|-----------------------------------------------------------------------------------|
|-----------------------------------------------------------------------------------|
|-----------------------------------------------------------------------------------|

|-----------------------------------------------------------------------------------|
|------------10h12p10------------10h12p10-------------10h12-12b--12-10--------------|
|-----------------------------------------------------------------------11-11~------|
|--10h12p10------------10h12p10------------10h12p10---------------------------------|
|-----------------------------------------------------------------------------------|
|-----------------------------------------------------------------------------------|

|-----------------------------------------------------------------------------------|
|------------12h14p12------------12h14p12------------12h14-14b-14b-14-12-15b~-------|
|-----------------------------------------------------------------------------------|
|--12h14p12------------12h14p12------------12h14p12---------------------------------|
|-----------------------------------------------------------------------------------|
|-----------------------------------------------------------------------------------|

|--17h20p17h20p17h20p17h20p17h20p17h20p17h20p17h20p17h20p17h20p17h20p17h20p17h20p---|
|-----------------------------------------------------------------------------------|
|-----------------------------------------------------------------------------------|
|-----------------------------------------------------------------------------------|
|-----------------------------------------------------------------------------------|
|-----------------------------------------------------------------------------------|
                         pick  really  fast
|--17h20p17h20p17h20p17--20--------------19--------19b-19b-19b-19b-19b19n-19--------|
|-----------------------------------------------------------------------------------|
|-----------------------------------------------------------------------------------|
|-----------------------------------------------------------------------------------|
|-----------------------------------------------------------------------------------|
|-----------------------------------------------------------------------------------|

|--20p17---17-----------------------------------------------------------------------|
|-------20---20-17------------------------------------------------------------------|
|------------------19-17-19-19^~----------------------------------------------------|
|-----------------------------------------------------------------------------------|
|-----------------------------------------------------------------------------------|
|-----------------------------------------------------------------------------------|

Chorus 2x

|-----------------------------------------------------------------------------------|
|-----------------------------------------------------------------------------------|
|-----------------------------------------------------------------------------------|
|-----------------------------------------------------------------------------------|
|---0--2--3--------------------5-3--------------------------------------------------|
|---0--2--3---5^--5^--3^--5^---5-3--------------------------------------------------|

|-------------------------------------------------------------3-3-------------------|
|-------------------------------------------------------------1-1-------------------|
|-------------------------------------------------------------2-2-------------------|
|-------------------------------------------------------------0-0-------------------|
|---0-0-0-0-0--2--3---3-5-5-3-5-5-3-/6-6-6-6-6\-5-3---------------------------------|
|---0-0-0-0-0--2--3---3-5-5-3-5-5-3/6-6-6-6-6-6\5-3---------------------------------|
            
Submit corrections


        Hey You (Batch Of Lies) lessons Hard to play? Try these video lessons and learn fast Hey You (Batch Of Lies) lessons
        
↑ Back to top | Tablatures and chords for acoustic guitar and electric guitar, ukulele, drums are parodies/interpretations of the original songs. You may use it for private study, scholarship, research or language learning purposes only