» » »

Black Label Society - Doomsday Jesus Tabs

Artists:  A B C D E F G H I J K L M N O P Q R S T U V W X Y Z # 

Doomsday Jesus Tabs

(ver. 1) Click to play this song!
Black Label Society
 Rating:
4.4/5 (8 votes)

 Doomsday Jesus lessons Tabs too difficult? Try these video lessons and learn fast
 
                [Intro/Verse 1] 
                                                                   x4
D|----------------------------------|----------------------------------|
A|----------------------------------|----------------------------------|
F|----------------------------------|----------------------------------|
C|-----------------------------0...-|-----------------------------0...-|
G|-----------------------------0...-|-----------------------------0...-|
C|-0-0-0-0-0-0-0-0-0-0-0-0-0-0------|-0-0-0-0-0-0-0-0-0-0-0-0-0-0------|
PM ---------------------------|    PM ---------------------------|

[Chorus]    
                            
D|----------------------------|----------------------------------|------------------|
A|----------------------------|----------------------------------|------------------|
F|----------------------------|----------------------------------|------------------|
C|---------10--9--7--9--10--7-|----------------------------------|----5-----5-------|
G|---------8---7--5--7--8---5-|--6\-5--3--0--3--2--0--2---3--0...|-0--3--0--3-------|
C|--/18\6---------------------|--6\-5--3--0--3--2--0--2---3--0...|-0-----0-----3~~~-|
                                     PM-------------|   PM----|  PM----------| ph   
      
                                                                        x2
D|----------------------------|-------------|-------------------------------|
A|----------------------------|-------------|-------------------------------|
F|----------------------------|-------------|-------------------------------|
C|---------10--9--7--9--10--7-|-------------|-------------------------------|
C|---------10--9--7--9--10--7-|--6\-5--3--0-|-----0------0------0------0----|
C|--/18\6---------------------|--6\-5--3--0-|-3---0--3---0--3---0--3---0...-|
                                     PM----| ph  PM ph  PM ph  PM ph

[Break]
                                                                  x2
D|----------------------------------|----------------------------------|
A|----------------------------------|----------------------------------|
F|----------------------------------|----------------------------------|
C|-----------------------------0...-|-----------------------------0...-|
G|-----------------------------0...-|-----------------------------0...-|
C|-0-0-0-0-0-0-0-0-0-0-0-0-0-0------|-0-0-0-0-0-0-0-0-0-0-0-0-0-0------|
PM ---------------------------|    PM ---------------------------|

[Verse]  
                                                                   x2
D|----------------------------------|----------------------------------|
A|----------------------------------|----------------------------------|
F|----------------------------------|----------------------------------|
C|-----------------------------0...-|-----------------------------0...-|
G|-----------------------------0...-|-----------------------------0...-|
C|-0-0-0-0-0-0-0-0-0-0-0-0-0-0------|-0-0-0-0-0-0-0-0-0-0-0-0-0-0------|
PM ---------------------------|    PM ---------------------------|
                                                          
[Chorus]

D|----------------------------|----------------------------------|------------------|
A|----------------------------|----------------------------------|------------------|
F|----------------------------|----------------------------------|------------------|
C|---------10--9--7--9--10--7-|----------------------------------|----5-----5-------|
G|---------8---7--5--7--8---5-|--6\-5--3--0--3--2--0--2---3--0...|-0--3--0--3-------|
C|--/18\6---------------------|--6\-5--3--0--3--2--0--2---3--0...|-0-----0-----3~~~-|
                                     PM-------------|   PM----|  PM----------| ph   

                                                                        x2
D|----------------------------|-------------|-------------------------------|
A|----------------------------|-------------|-------------------------------|
F|----------------------------|-------------|-------------------------------|
C|---------10--9--7--9--10--7-|-------------|-------------------------------|
C|---------10--9--7--9--10--7-|--6\-5--3--0-|-----0------0------0------0...-|
C|--/18\6---------------------|--6\-5--3--0-|-3---0--3---0--3---0--3---0...-|
                                     PM----| ph  PM ph  PM ph  PM ph

[Chorus]

D|----------------------------|----------------------------------|------------------|
A|----------------------------|----------------------------------|------------------|
F|----------------------------|----------------------------------|------------------|
C|---------10--9--7--9--10--7-|----------------------------------|----5-----5-------|
G|---------8---7--5--7--8---5-|--6\-5--3--0--3--2--0--2---3--0...|-0--3--0--3-------|
C|--/18\6---------------------|--6\-5--3--0--3--2--0--2---3--0...|-0-----0-----3~~~-|
                                     PM-------------|   PM----|  PM----------| ph   

                                                                         x2
D|----------------------------|-------------|-------------------------------|
A|----------------------------|-------------|-------------------------------|
F|----------------------------|-------------|-------------------------------|
C|---------10--9--7--9--10--7-|-------------|-------------------------------|
C|---------10--9--7--9--10--7-|--6\-5--3--0-|-----0------0------0------0----|
C|--/18\6---------------------|--6\-5--3--0-|-3~--0--3~--0--3~--0--3~--0...-|
                                     PM----| ph  PM ph  PM ph  PM ph

[Outro]

D|------------------------------|--------------------------------|----------------|--------------|
A|------------------------------|--------------------------------|----------------|--------------|
F|------------------------------|--------------------------------|----------------|--------------|
C|------------------------------|--------------------------------|----------------|--------------|
G|-/6\---5---x--5...-x------0...|-----0------0------0-------0...-|-/6\---5---x--5-|-x------0....-|   
C|-/6\---5---x--5...-x--3~--0...|-3~--0--3~--0--3~--0---3~--0...-|-/6\---5---x--5-|-x--3~--0....-|
                       ph               ph  PM ph  PM  ph                             ph

            
Submit corrections


        Doomsday Jesus lessons Hard to play? Try these video lessons and learn fast Doomsday Jesus lessons
        
↑ Back to top | Tablatures and chords for acoustic guitar and electric guitar, ukulele, drums are parodies/interpretations of the original songs. You may use it for private study, scholarship, research or language learning purposes only