» » »

Black Label Society - Blacked Out World Tabs

Artists:  A B C D E F G H I J K L M N O P Q R S T U V W X Y Z # 

Blacked Out World Tabs

(ver. 1) Click to play this song!
Black Label Society
 Rating:
4.3/5 (10 votes)

 Blacked Out World lessons Tabs too difficult? Try these video lessons and learn fast
 
                  (Pre-bend this note and play it with ferocity)      (Again, pre-bend)
|--------------------------------------------------------6b9sr--------------------------------------------|
|-17r13b17r13b17r13b17r13b17r-----------------------------------------------------------------------------|
|---------------------------------------------------------------------------------------------------------|
|---------------------------------------------------------------------------------------------------------|
|---------------------------------------------------------------------------------------------------------|
|-----------------------------------------------------------------------------12//////////----------------|



|---------------------------------------------------------------------------------------------------------|
|--------------------------------------------------------------2-4-5--2-4-5----5b7r5-2-5b7----------------|
|--------------------------------------2-4-5-------------2-4-5--------------------------------------------|
|--------------2-4-5-------------2-4-5-------2-4-5-2-4-5--------------------------------------------------|
|--------2-3-5-------2-3-5-2-3-5--------------------------------------------------------------------------|
|--2-4-5--------------------------------------------------------------------------------------------------|




|------2----------2---------2----------2---------2-----2-----2-2-----2-2------2----------------------------|
|--5b7---5p2--------5p2-5b7---5p2--------5p2-5b7---5b7---5b7-----5b7------5b7------------------------------|
|------------4b6-------------------4b6--------------------------------------------4b6r4-2------------------|
|----------------------------------------------------------------------------------------------------------|
|----------------------------------------------------------------------------------------------------------|
|----------------------------------------------------------------------------------------------------------|




|---------14h17p14--------14h17p14--------14h17p14--------14h17p14-----------------------------------------|
|--17b19------------17b19----------17b19-----------17b19------------17b19--17b19---------------------------|
|----------------------------------------------------------------------------------------------------------|
|----------------------------------------------------------------------------------------------------------|
|----------------------------------------------------------------------------------------------------------|
|----------------------------------------------------------------------------------------------------------|




|--14--19p14h19p14---------17p14h17p14---------17p14-------------------------------------------------------|
|-------------------17p14---------------17p14---------17p14--------17p14-----------------------------------|
|-----------------------------------------------------------16p14--------16p14--------16p14----------------|
|------------------------------------------------------------------------------16p14---------16p14---------|
|----------------------------------------------------------------------------------------------------------|
|----------------------------------------------------------------------------------------------------------|
            
Submit corrections


        Blacked Out World lessons Hard to play? Try these video lessons and learn fast Blacked Out World lessons
        
↑ Back to top | Tablatures and chords for acoustic guitar and electric guitar, ukulele, drums are parodies/interpretations of the original songs. You may use it for private study, scholarship, research or language learning purposes only