» » »

Black Label Society - Beneath The Tree Tabs

Artists:  A B C D E F G H I J K L M N O P Q R S T U V W X Y Z # 

Beneath The Tree Tabs

(ver. 1) Click to play this song!
Black Label Society
 Rating:
3.7/5 (6 votes)

 Beneath The Tree lessons Tabs too difficult? Try these video lessons and learn fast
 
                


this is about what i can get on an acoustic;  this should
get you started though.  Ill finish the rest soon

------------------------------------------------------------------------------|
------------------------8----------------------8------------------------------|
----------------------7----------------------7--------------------------------|
--------------------9----------------------9----------------------------------|
-----------------10---------------------10------------------------------------|
--0-0-0-0-0-0-0-----------0-0-0-0-0-0-0---------------------------------------|
  Accoustic Beginning Repeat 2x and slide down or use chorus effect.

------------------------------------------------------------------------------|
------------------------------------------------------------------------------|
------------------------------------------------------------------------------|
----4-5-4----4-5-4----4-5-4----4-5-4----4-5-4----4-5-4----4-5-4----4-5-4------|
--2--------5--------2--------5--------2--------5--------2--------5------------|
------------------------------------------------------------------------------|
  Repeat 2x

------------------------------------------------------------------------------|
------------------------------------------------------------------------------|
------------------------------------------------------------------------------|
------------------------------------------------------------------------------|
--2\4-4-4-5-0-2-0-2/5-4-2-0--2/4---5/7-5-0h2-0-2-2-0-2/4-4-4/7\5-0h2----------|
------------------------------------------------------------------------------|
  bass aranged for guitar }                                      Repeat to }

------------------------------------------------------------------------------|
------------------------------------------------------------------------------|
------------------------------------------------------------------------------|
------------------------------------------------------------------------------|
------------------------------------------------------------------------------|
------------------------------------------------------------------------------|
   misc.  effects with pedal

------------------------------------------------------------------------------|
------------------------------------------------------------------------------|
------------------------------------------------------------------------------|
------------------------------------------------------------------------------|
------------------------------------------------------------------------------|
--5-0-5h6-5-3-----------------------------------------------------------------|
            p.h~~~

------------------------------------------------------------------------------|
------------------------------------------------------------------------------|
------------------------------------------------------------------------------|
------------------------------------------------------------------------------|
------------------------------------------------------------------------------|
--12-10-8-0-3-0-5-6-5-3---12-10-8-0-0-0-0-0-0-0-------------------------------|
  Repeat 2x                      Heavy P.M.----

------------------------------------------------------------------------------|
------------------------------------------------------------------------------|
------------------------------------------------------------------------------|
------------------------------------------------------------------------------|
------------------------------------------------------------------------------|
--12-10-8---------------------------------------------------------------------|
        Vib.~~~~~      Repeat part A

------------------------------------------------------------------------------|
------------------------------------------------------------------------------|
------------------------------------------------------------------------------|
------------------------------------------------------------------------------|
------------------------------------------------------------------------------|
------------------------------------------------------------------------------|
  Then Repeat Accoustic
            
Submit corrections


        Beneath The Tree lessons Hard to play? Try these video lessons and learn fast Beneath The Tree lessons
        
↑ Back to top | Tablatures and chords for acoustic guitar and electric guitar, ukulele, drums are parodies/interpretations of the original songs. You may use it for private study, scholarship, research or language learning purposes only