Home » B » Black Crowes »

Black Crowes - Hard To Handle Bass

Artists:  A B C D E F G H I J K L M N O P Q R S T U V W X Y Z # 

Hard To Handle Bass

(ver. 1) Click to play this song!
Black Crowes
Hard To Handle by The Black Crowes



 Intro
G-------------|-----------|-----------|---------|
D-------1-2-4-|-2-0-2-0---|-----1-2-4-|-2-0-2-0-|
A---2-2-------|---------2-|-2-2-------|---------|
E-------------|-----------|-----------|---------|

     Verse          7x
G---|------------------|---------------------|
D---|*----------------*|---------1-1-2-2-3-4-|
A---|*-2-2-2-2------0-*|-2-2-2-2-------------|
E---|-----------0-2----|---------------------|

    Chorus
G--------------------|------------------|---|
D-------4------------|-4---4------------|---|
A------------1-2-3-4-|----------1-2-3-4-|-2-|
E---2-2---2----------|---2---2----------|---|

G---------------------------------|-------|
D---------------------------------|-------|
A---5-5-5-5-5-5-5-5-7-7-7-7-7-7-7-|-------|
E---------------------------------|-5-0-7-|
    Verse
    Chorus

              4x
G---|------------|
D---|*----------*|
A---|*----------*|
E---|--5-0-7-----|
    Verse
    Chorus

               4x
G---|-------------|
D---|*-----------*|
A---|*-----------*|
E---|--5-0-7------|
    Lead[Same As Verse]
    Chorus

              4x
G---|------------|
D---|*----------*|
A---|*----------*|
E---|--5-0-7-----|

    Outro            8x                        3x     END
G---|------------------|-|------------------------|-------|
D---|*----------------*|-|*----------------------*|-------|
A---|*-2-2-2-2------0-*|-|*----------------------*|-------|
E---|-----------0-2----|-|--5-0-7--7-7-7-7-7-7-7--|-5-0-7-|
            
Submit corrections

↑ Back to top | Tablatures and chords for acoustic guitar and electric guitar, ukulele, drums are parodies/interpretations of the original songs. You may use it for private study, scholarship, research or language learning purposes only