Home » B » Black »

Black - Everything Is Coming Up Roses Bass

Artists:  A B C D E F G H I J K L M N O P Q R S T U V W X Y Z # 

Everything Is Coming Up Roses Bass

(ver. 1) Click to play this song!
Black
Black - Everything Is Coming Up Roses


Tuning: Standard

Intro

G|-----------|
D|----9------|
A|-77--7-----|
E|-----------| 30X

G|-------------------7/9-7-------------------------|
D|---9-----9-----7-----------9-----9-----7-----5---|
A|-7---7-7---7-5---5-------7---7-7---7-5---5-3---3-|
E|-------------------------------------------------|

Verse

G|-------------------------------------------------------|
D|---9-----9-----9----9-----7-----7-----7---7---7--------|
A|-7---7-7---7-7---7-7--7-5---5-5---5-5---5---5---5------|
E|-------------------------------------------------------| 2X

G|-----------------------------------------------------------------------------------------------|
D|--5-----5----5-----5-----7-----7-----7-----7-----9-----9-----9-----9-----4-----4---------------|
A|3---3-3--3-3---3-3---3-5---5-5---5-5---5-5---5-7---7-7---7-7---7-7---7-2---2-2---2-222222222222|
E|-----------------------------------------------------------------------------------------------|

Chorus

G|-------------------------------------------------------|
D|---------------------------7-----7-----7----7/9-7------|
A|---7-----7-----7-----7---5---5-5---5-5---5-------------|
E|-5---5-5---5-5---5-5---5-------------------------------| 2X

G|-------------------7/9-7--------------------------|
D|---9-----9-----7-----------9-----9-----7-----5----|
A|-7---7-7---7-5---5-------7---7-7---7-5---5-3---3--|
E|--------------------------------------------------| 2X

Brigde before solo

G|------------|
D|---9--------|
A|-7---7------|
E|------------| 16X

Solo

G|-----------------------------------------------------------------------------------------------|
D|-----------------------------------------------------------------------------------------------|
A|-333333333333333333333335555555555555555555555557777777777777777777777-------------------------|
E|----------------------------------------------------------------------77777777777777777777-----|

G|---------------------------------------------------------|
D|---------------------------7-----7-----7-----7-----7-----|
A|---7-----7-----7-----7---5---5-5---5-5---5-5---5-5---5---|
E|-5---5-5---5-5---5-5---5---------------------------------|

G|--------------------------------------7/9-7--9-7-------|
D|----------------------------7-----7---------9----9-----|
A|---7-----7-----7-----7----5---5-5---5------------------|
E|-5---5-5---5-5---5-5---5-------------------------------|
            
Submit corrections

↑ Back to top | Tablatures and chords for acoustic guitar and electric guitar, ukulele, drums are parodies/interpretations of the original songs. You may use it for private study, scholarship, research or language learning purposes only