» » »

B J Thomas - Raindrops Keep Fallin On My Head Bass

Artists:  A B C D E F G H I J K L M N O P Q R S T U V W X Y Z # 

Raindrops Keep Fallin On My Head Bass

(ver. 1) Click to play this song!
B J Thomas
 Rating:
4.4/5 (8 votes)

 Raindrops Keep Fallin On My Head lessons Tabs too difficult? Try these video lessons and learn fast
 
                0:05

G|------------------------------------------------------------------------3-----------3-----------|
D|3-----------3-----------3-----------3-----------3-----------3-----------------------------------|
A|------------------------------------------------------------------------------------------------|
E|------------------------------------------------------------------------------------------------|

G|2---------2-------------2-----------------------|
D|------------0-----------------------0---------0-|
A|------------------------------------------------|
E|------------------------------------------------|

G|------------------------------------------------------------------------|
D|5-----------5---------5-5-----------5-----------------------------------|
A|------------------------------------------------3---------------------3-|
E|------------------------------------------------------------------------|

0:25

G|------------------------------------------------------------------------3-----------3-----------|
D|3-----------3-----------3-----------3-----------3-----------3-----------------------------------|
A|------------------------------------------------------------------------------------------------|
E|------------------------------------------------------------------------------------------------|

G|2---------2-------------2---------2-------------|
D|------------0-----------------------0-----------|
A|------------------------------------------------|
E|------------------------------------------------|

G|------------------------------------------------------5---------------5-|
D|5---------5-5---------5-5-----------5---------5-------------------------|
A|------------------------------------------------3-----------------------|
E|------------------------------------------------------------------------|

0:46

G|------------------------------------------------------------------------------------------------|
D|3---------3-------------------------------------------------------------------------------------|
A|------------3-----------3-----------3-----2-----1-----------1-----------3-----------3---------1-|
E|------------------------------------------------------------------------------------------------|

G|----------------------------------------------2-------------------------------------------------|
D|------------------------------------------------0-----------0---------0-5-----------5-----------|
A|0-----------0-----------0-----------0-----------------------------------------------------------|
E|------------------------------------------------------------------------------------------------|

G|------------------------------------------------|
D|----------------------5-------------------------|
A|3-----------------------3-----------------------|
E|------------------------------------------------|

1:09

G|------------------------------------------------------------------------3-----------3-----------|
D|3-----------3-----------3-----------3-----------3-----------3-----------------------------------|
A|------------------------------------------------------------------------------------------------|
E|------------------------------------------------------------------------------------------------|

G|2---------2-------------2-----------------------|
D|------------0-----------------------0-----------|
A|------------------------------------------------|
E|------------------------------------------------|

G|------------------------------------------------------------------------|
D|5-----------5---------5-5-----------5-----------------------------------|
A|------------------------------------------------3-----------------3-----|
E|------------------------------------------------------------------------|

G|------------------------------------------5-----|
D|3-----------3---------3-5---------5-----------3-|
A|------------------------------------3-----------|
E|------------------------------------------------|

1:34

G|------------------------------------------------------------------------------------------------|
D|3---------3-------------------------------------------------------------------------------------|
A|------------3-----------3-----------3-----2-----1-----------1-----------3-----------3---------1-|
E|------------------------------------------------------------------------------------------------|

G|------------------------------------------------------------------------------------------------|
D|------------------------------------------------0-----------0---------0-5-----------5---------5-|
A|0------------0----------0-----------0-----------------------------------------------------------|
E|------------------------------------------------------------------------------------------------|

G|------------------------------------------------|
D|----------------------5-------------------------|
A|3-----------------------3---------------------3-|
E|------------------------------------------------|

1:57

G|----------------------------------------------------------------------2-3-----------3-----------|
D|3-----------3-----------3-----------3-----------3-----------3-----------------------------------|
A|------------------------------------------------------------------------------------------------|
E|------------------------------------------------------------------------------------------------|

G|2---------2-------------2-----------------------|
D|------------0-----------------------0---------0-|
A|------------------------------------------------|
E|------------------------------------------------|

G|------------------------------------------------------------------------|
D|5-----------5---------5-5-----------5-----------------------------------|
A|------------------------------------------------3-----------------3---3-|
E|------------------------------------------------------------------------|

G|------------------------------------------|
D|3-----------3---------3-5---------5-------|
A|------------------------------------3-----|
E|------------------------------------------|

2:28 Until fadeout.

G|------------------------------------------------------------------------|
D|3-----3-3-------3-----3-3-------1-----1-1-------1-----1-1-------1---1---|
A|------------------------------------------------------------------------|
E|------------------------------------------------------------------------|            
Submit corrections


        Raindrops Keep Fallin On My Head lessons Hard to play? Try these video lessons and learn fast Raindrops Keep Fallin On My Head lessons
        
↑ Back to top | Tablatures and chords for acoustic guitar and electric guitar, ukulele, drums are parodies/interpretations of the original songs. You may use it for private study, scholarship, research or language learning purposes only