Home » B » Bjork Brant »

Bjork Brant - Automatic Fantastic Tabs

Artists:  A B C D E F G H I J K L M N O P Q R S T U V W X Y Z # 

Automatic Fantastic Tabs

(ver. 3) Click to play this song!
Bjork Brant
-----------------------------------------------------------------------------
This is the second track off Brant Bjork's debut effort: Jalamanta. Cool as f**k.
I've put parentheses around the notes on the F# string for the main guitar because 
I can't hear whether they should be in there or not for the main riff. On the 
"Awesome bridge (main)", I'm almost certain that they aren't there on the 
recording but I'm sure Brant throws them in when performing live occasionally 
- it sounds good with or without them so it's your choice.
-----------------------------------------------------------------------------
Track: "Automatic Fantastic"
Tab for: Guitar
Tuning: Half-step down
-----------------------------------------------------------------------------
| /   slide up
| \   slide down
| h   hammer-on
| p   pull-off
| ~   vibrato
| b   bend
-----------------------------------------------------------------------------
Main riff:
d#|------------------------------------------------------|
A#|------------------------------------------------------|
F#|------(9)-(7)/(9)-(9)-(7)-(7)---(5)/(7)-(7)--(5)-(5)~-| - BB switches between  ~, / and b
C#|-------9---7-/-9---9---7---7-----5-/-7---7----5---5~~-| - BB switches between  ~, / and b
G#|-------7---5-/-7---7---5---5-----3-/-5---5----3---3~~-| - BB switches between  ~, / and b
D#|--0-0-------------------------------------------------|

Guitar overlap:
d#|-----------------------------------------------------------------------------|
A#|-----------------------------------------------------------------------------|
F#|-----------------------------------------------------------------------------|
C#|------5-5-5h7------------------------------------------------------5-5-5h7~--|
G#|--5h7--------------/7-5h7-7-5-5-------------------7-5h7-7-5-5--5h7-----------|
D#|---------------0-0--------------5b6b5-3-3~---0-0-----------------------------|

Awesome bridge (main):
d#|----------------|
A#|----------------|
F#|--(7)-(7)-(9)~--|
C#|---7---7---7~~--|
G#|---5---5---7~~--|
D#|----------------|

Awesome bridge (overlap):
d#|-------------------------------|
A#|-------------------------------|
F#|-------------------------------|
C#|--------------------------5----|
G#|--5-5-7~----5-5-7~--5-5-5---7~-|
D#|-------------------------------|

Solo guitar:
I attempted to tab out the first solo but the wah-wah effect made it very difficult 
so when I realised there was a second one... I er... just use these notes to improvise ;)

d#|-----------------------|
A#|-----------------------|
F#|------------------7-9--|
C#|------------5-7-9------|
G#|--------5-7------------|
D#|--0-5-7----------------|

Guitar overlap 2:

d#|-------------------------------------------------------|
A#|-------------------------------------------------------|
F#|-------------------------------------------------------|
C#|-----------------5-5-5h7~-------------------5-5-5h7~---|
G#|--5-7-7-5-5--5h7------------5-7-7-5-5--5h7-------------|
D#|-------------------------------------------------------|

d#|----------------------------------------------------|
A#|----------------------------------------------------|
F#|----------------------------------------------------|
C#|-----------------5-5-5h7~---------------------------|
G#|--5-7-7-5-5--5h7------------5-7-7-5-5---------------|
D#|---------------------------------------3h5-5-3-3~---|

Guitar overlap 3:

d#|------------------------------------------|
A#|------------------------------------------|
F#|------------------------------------------|
C#|------5b--------5b--------5b--------7b-5--|
G#|--5h7----7--5h7----7--5h7----7--5h7-------|
D#|------------------------------------------|
            
Submit corrections

↑ Back to top | Tablatures and chords for acoustic guitar and electric guitar, ukulele, drums are parodies/interpretations of the original songs. You may use it for private study, scholarship, research or language learning purposes only