Home » B » Bjork »

Bjork - Black Lake Tabs

Artists:  A B C D E F G H I J K L M N O P Q R S T U V W X Y Z # 

Black Lake Tabs

(ver. 1) Click to play this song!
Bjork
Зlay this very slowly and steadily over and over a few times.

e|---------------------------------------------------------------------------|
B|---------------------------------------------------------------------------|
G|------3------2-------------------------------------------------------------|
D|------3------0-------------------------------------------------------------|
A|---------------------------------------------------------------------------| 
E|---------------------------------------------------------------------------|

The end of the song gets a little darker and can sound more like this:

e|---------------------------------------------------------------------------|
B|---------------------------------------------------------------------------|
G|---------------------------------------------------------------------------|
D|------3------2-------------------------------------------------------------|
A|------3------0-------------------------------------------------------------| 
E|---------------------------------------------------------------------------|




[Verse 1]
Our love was my womb but our bond has broken
And my shield is gone, my protection is taken
I am 1 wound in my pulsatin' body 
Sufferin' being

[Verse 2]
My heart is enormous, lake black with potion
I am blind, drownin' in this ocean

[Verse 3]
My soul torn apart, and my spirit is broken
Into far over the mist, over... 

[Verse 4]
True fear may limits last
And emotions, I am bored of your
Apocalyptic obsessions
Did I love you too much?
Devotion and me broken
So I repent, destroyed 
(I must, I...)

[Verse 4]
I did it for love
I honored my feelings
You betrayed your own heart
Corrupted that organ

[Verse 5]
Family was always
Our own sacred, mutual mission which
Which you abandoned

[Verse 6]
You have nothing to give
Your heart is hollow
I'm drowned in sorrow
We hold inside up and down
Lake darkness eternity and 

[Verse 7]
I am all-glowing shining rocket
Returning home as I enter 
The atmosphere, I burn off
Layer by layer            
Submit corrections

↑ Back to top | Tablatures and chords for acoustic guitar and electric guitar, ukulele, drums are parodies/interpretations of the original songs. You may use it for private study, scholarship, research or language learning purposes only