Home » B » Birds Of Tokyo »

Birds Of Tokyo - Lanterns Tabs

Artists:  A B C D E F G H I J K L M N O P Q R S T U V W X Y Z # 

Lanterns Tabs

(ver. 1) Click to play this song!
Birds Of Tokyo


Standard Tuning

Intro

G       C       G       C
Em      C       G

e|-----10--7--|------10--7--|------10--7--|------------|
B|--8---------|--10---------|--10---------|---10----8--|
G|------------|-------------|-------------|------------|
D|------------|-------------|-------------|------------|
A|------------|-------------|-------------|------------|
E|------------|-------------|-------------|------------|

Verse

G       C       G       C
Em      C       G

Lately I've found
When I start to think aloud
There's a longing in the sound
There is more I could be
In darkness I leave
For a place I've never seen
It's been calling out to me
That is where I should be

Fill

e|-------------|
B|-------------|
G|--0h2p0h2h4--|
D|-------------|
A|-------------|
E|-------------|

Pre-Chorus

Em      G
Em      G

We never carried days on our own
But now it's up to us to know

Fill

e|-------------|
B|-------------|
G|--0h2p0h2h4--|
D|-------------|
A|-------------|
E|-------------|

Em      C       G
C       G       Am

The weight of being so much more
We will find ourselves on the road

Chorus

G       C       G       C
Em      C       G

e|-----10--7--|------10--7--|------10--7--|------------|
B|--8---------|--10---------|--10---------|---10----8--|
G|------------|-------------|-------------|------------|
D|------------|-------------|-------------|------------|
A|------------|-------------|-------------|------------|
E|------------|-------------|-------------|------------|

On we march with a midnight song
We will light our way
With our lanterns on
On we march ‘til we meet the dawn
We will light our way
With our lanterns on

2nd Verse

G       C       G       C
Em      C       G


As we walk out
Without question without doubt
In the light that we have found
It is finally clear

Our day has come
And we'll stand for who we are
We are ready we are young
We have nothing to fear

Repeat Fill + Pre-Chorus

Repeat Chorus

Bridge

C       Am
C       Am
C       F       Am

We held the light
To our faces
And realised
We were chasing
Shadows behind
Not worth saving
So burn it bright
Forever illuminating

Repeat Chorus x2

Outro

G       C       G       C
Em      C       G

In darkness I leave
For a place I've never seen
It's been calling out to me
That is where I should be

************************************

| /   slide up
| \   slide down
| h   hammer-on
| p   pull-off
| ~   vibrato
| +   harmonic
| x   Mute note
| b   Bend
| pb  Pre-bend
| br  Bend release
| pbr Pre-bend release
| brb Bend release bend

************************************
            
Submit corrections

↑ Back to top | Tablatures and chords for acoustic guitar and electric guitar, ukulele, drums are parodies/interpretations of the original songs. You may use it for private study, scholarship, research or language learning purposes only