Home » B » Bing Crosby »

Bing Crosby - White Christmas Tabs

Artists:  A B C D E F G H I J K L M N O P Q R S T U V W X Y Z # 

White Christmas Tabs

(ver. 3) Click to play this song!
Bing Crosby
[Verse]
   G                                           Am                    Am7
E|---------------------|---------------------|---------------------|---------------------|
B|-0-------------------|-1----0---------0----|-1-------------------|-2----3--------------|
G|---------------------|-----------3---------|---------------------|---------------------|
D|------0---------0----|------0---------0----|------2---------2----|------0---------0----|
A|---------------------|---------------------|-0---------0---------|-0---------0---------|
E|-3---------3---------|-3---------3---------|---------------------|---------------------|
   I'm                   dreaming  of   a      white                 christmas,

   C                     Am7                   G
E|------0----2----3----|-5----3----2----0----|---------------------|---------------------|
B|---------------------|---------------------|-3-------------------|---------------------|
G|---------------------|------0---------0----|---------------------|-----------0----2----|
D|------2---------2----|---------------------|------0---------0----|------0---------0----|
A|-3---------3---------|-0---------0---------|-----------2---------|---------------------|
E|---------------------|---------------------|-3-------------------|-3---------3---------|
        just like the    ones I    used to     know                            when the
        
                                               Em
E|---------------------|------0--------------|---------------------|---------------------|
B|-0---------0---------|-0--------------3----|---------------------|------3---------1----|
G|---------------------|---------------------|-0---------0---------|-0-------------------|
D|------0---------0----|------2---------0----|------2---------2----|------2---------0----|
A|---------------------|---------------------|---------------------|---------------------|
E|-3---------3---------|-3---------0---------|-0---------0---------|-0---------0---------|
   tree-     tops        glizzen        and    chil-     dren        listen         to
 
   Bm7                   Am                    Dm
E|---------------------|---------------------|---------------------|---------------------|
B|-0-------------------|-1----0--------------|---------------------|---------------------|
G|---------------------|-----------2----0----|-2-------------------|---------------------|
D|------4---------4----|------2---------2----|------0---------0----|------0---------0----|
A|---------------------|-0---------0---------|-0---------0---------|-----------0---------|
E|-2---------2---------|---------------------|---------------------|-2-------------------|
   hear                  sleighbells in the    snow.

   G                                           Am                    Am7
E|---------------------|---------------------|---------------------|---------------------|
B|-0-------------------|-1----0---------0----|-1-------------------|-2----3--------------|
G|---------------------|-----------3---------|---------------------|---------------------|
D|------0---------0----|------0---------0----|------2---------2----|------0---------0----|
A|---------------------|---------------------|-0---------0---------|-0---------0---------|
E|-3---------3---------|-3---------3---------|---------------------|---------------------|
   I'm                   dreaming  of   a      white                 christmas,             

   C                     Am7                   G
E|------0----2----3----|-5----3----2----0----|---------------------|---------------------|
B|---------------------|---------------------|-3-------------------|---------------------|
G|---------------------|------0---------0----|---------------------|-----------0----2----|
D|------2---------2----|---------------------|------0---------0----|------0---------0----|
A|-3---------3---------|-0---------0---------|-----------2---------|---------------------|
E|---------------------|---------------------|-3-------------------|-3---------3---------|
        with every       christmas card I      write:                          May  your      
             
                         G6                    G                     Dm
E|---------------------|------0--------------|-3-------------------|---------------------|
B|-0---------0---------|-0--------------3----|---------------------|---------------------|
G|---------------------|---------------------|---------------------|-----------0----2----|
D|------0---------0----|------2---------0----|------0---------0----|------0---------0----|
A|---------------------|---------------------|-----------2---------|---------------------|
E|-3---------3---------|-3---------0---------|-3-------------------|-2---------2---------|
   days      be          merry          and    bright,                         and  may

   G                     Bm7                      G
E|---------------------|-0----------------------|---------------------|-3-------------------|
B|-0---------0---------|------------------------|---------------------|-0-------------------|
G|---------------------|------------------------|-0-------------------|-0-------------------|
D|------0---------0----|----------4---4----4----|------0---------0----|---------------------|
A|---------------------|------0------------0----|-----------2---------|---------------------|
E|-3---------3---------|-2------------2---------|-3-------------------|-3-------------------|
   all       your        christ-  masses   be     white!            
Submit corrections

↑ Back to top | Tablatures and chords for acoustic guitar and electric guitar, ukulele, drums are parodies/interpretations of the original songs. You may use it for private study, scholarship, research or language learning purposes only