Home » B » Billy Talent »

Billy Talent - Viking Death March Bass

Artists:  A B C D E F G H I J K L M N O P Q R S T U V W X Y Z # 

Viking Death March Bass

(ver. 1) Click to play this song!
Billy Talent
Billy Talent
Viking Death March (2012)
Drop D


Intro:
|-----------------------------|
|--5-553-3-331-1-110----------|
|-------5-----3-----3---------|
|--------------------3/5-555--|         (x2)

Chorus:
|----------------------------|----------------------------|
|----------------------------|----------------------------|
|----------------------------|---------------------3-3-3--|
|--5-5555-3-3333-1-1111-5555-|-5-5555-3-3333-1-1111-------|

Verse:
|---------------------------------------------------|
|---------------------------------------------------|
|---------------------------------------------------|
|-5-5555-5-5555-5-555-5-5-7-8-8888-8-8888-3-3333-3--|

 -------------------------------------------------------------|
 -------------------------------------------------------------|
 -001-3-3333-3-3333-------------------------------------------|
 -------------------1-1111-1-1111-5-5555-5-5578-0-0000-0-0000-|

Pre-Chorus:
|-----------------------------------|
|-----------------------------------|
|--3-3-3--5-5-5-1-1-0-1-1-0---------|
|-----5------7-------------1-1-0-1\-|

Chorus:
|----------------------------|----------------------------|
|----------------------------|----------------------------|
|----------------------------|---------------------3-3-3--|
|--5-5555-3-3333-1-1111-5555-|-5-5555-3-3333-1-1111-------|

Verse:
|---------------------------------------------------|
|---------------------------------------------------|
|---------------------------------------------------|
|-5-5555-5-5555-5-555-5-5-7-8-8888-8-8888-3-3333-3--|

 -------------------------------------------------------------|
 -------------------------------------------------------------|
 -001-3-3333-3-3333-------------------------------------------|
 -------------------1-1111-1-1111-5-5555-5-5578-0-0000-0-0000-|

Pre-Chorus:
|-----------------------------------|
|-----------------------------------|
|--3-3-3--5-5-5-1-1-0-1-1-0---------|
|-----5------7-------------1-1-0-1\-|

Chorus 2:
|---------------------------|------------------------------|
|---------------------------|------------------------------|
|---------------------------|------------------------------|
|-5-5555-3-3333-1-1111-5555-|-5-5555-3-3333-1-1111--5-5578-|

Solo:
|-----------------------------------------|
|-----------------------------------------|
|-----------------------------------------|
|--0-00004p000007p00(10)p008p0000007h8p7--|  (x3)

|--------------------------------------|
|--------------------------------------|
|--------------------------------------|
|--0-00004p000007p0(10)p07p08-00-787---|


Verse:
|---------------------------------------------------|
|---------------------------------------------------|
|---------------------------------------------------|
|-5-5555-5-5555-5-555-5-5-7-8-8888-8-8888-3-3333-3--|

 -------------------------------------------------------------|
 -------------------------------------------------------------|
 -001-3-3333-3-3333-------------------------------------------|
 -------------------1-1111-1-1111-5-5555-5-5578-0-0000-0-0000-|

Pre-Chorus:
|-----------------------------------|
|-----------------------------------|
|--3-3-3--5-5-5-1-1-0-1-1-0---------|
|-----5------7-------------1-1-0-1\-|

Bridge: (Bass comes in at 3:18)
|-----------------------------|
|--5-553-3-331-1-110----------|
|-------5-----3-----3---------|
|--------------------3/5-555--|         (x4)


Chorus:
|----------------------------|--------|
|----------------------------|-(5555)-|
|----------------------------|--------|
|--5-5555-3-3333-1-1111-5555-|--5555--|
            
Submit corrections

↑ Back to top | Tablatures and chords for acoustic guitar and electric guitar, ukulele, drums are parodies/interpretations of the original songs. You may use it for private study, scholarship, research or language learning purposes only