Home » B » Billy Squier »

Billy Squier - My Kinda Lover Bass

Artists:  A B C D E F G H I J K L M N O P Q R S T U V W X Y Z # 

My Kinda Lover Bass

(ver. 1) Click to play this song!
Billy Squier
[Verse: enter at :05]

   q
G|-----------------|-----------------|-----------------|-----------------|  x2
D|-----------------|-----------------|-----------------|-----------------|
A|-3r--------------|-----------------|-----------------|-----------------|
E|-----------------|-----------------|-----------------|-----------------|

   q   q   q  s s e   q   q   q   q     q   q   q  s s e   q   q   q   q
G|------------------|-----------------|------------------|-----------------|
D|------------------|-----------------|------------------|-3---------------|
A|------------------|-----3-------5---|------------------|-----3-------5---|
E|-5---0---5--0-5-3-|-1-------3-------|-5---0---5--0-5-3-|---------3-------|


[Chorus]

   q   q   q  ss e   q   q   q  ss     q   q   q   q     e e e s e s s s s s e    
G|-----------------|-----------------|-----------------|---------5-5-4-4-2-2-0-|
D|-7-------7---7-5-|-3-------3---3---|-----5---5---5---|---7-7-7---------------|
A|-----7------7----|-----3------3----|-0---------------|-0---------------------|
E|-----------------|-----------------|-----------------|-----------------------|

   q   q   q  ss e   q   q   q  ss     q   q   q   q     w       + w           
G|-----------------|-----------------|-----------------|--------|---------|
D|-7-------7---7-5-|-3-------3---3---|-----5---5---5---|--------|---------|
A|-----7------7----|-----3------3----|-0---------------|-0------|-(0)-----|
E|-----------------|-----------------|-----------------|--------|---------|


[Verse]

   q    H      s s  s s   H+q         e  s s   H+q     s s s s   H+q      e s s
G|----------------------|--------------------|-----------------|-----------------|
D|-10---R------10---7-10|-R-----------10-7-5-|-R-------5-----5-|-R--------5-7-10-|
A|---------------10-----|--------------------|-----------5-7---|-----------------|
E|----------------------|--------------------|-----------------|-----------------|

   H+q         s s  s s   H+q         e  s s   H+q     s s s s   w
G|----------------------|--------------------|-----------------|-----------------|
D|-R-----------10---7-10|-R-----------10-7-5-|-R-------5-----5-|-R---------------|
A|---------------10-----|--------------------|-----------5-7---|-----------------|
E|----------------------|--------------------|-----------------|-----------------|

   q   q   q  s s e   q   q   q   q     q   q   q  s s e   q   q   q   q
G|------------------|-----------------|------------------|-----------------|
D|------------------|-----------------|------------------|-3---------------|
A|------------------|-----3-------5---|------------------|-----3-------5---|
E|-5---0---5--0-5-3-|-1-------3-------|-5---0---5--0-5-3-|---------3-------|


[Chorus]

   q   q   q  ss e   q   q   q  se.    q   q   q   q     e e e s e s s s s s s s                    
G|-----------------|-----------------|-----------------|-------------------------|
D|-7-------7---7-5-|-3-------3---3---|-----5---5---5---|---7-7-5-7-7-5---5-------|
A|-----7------7----|-----3------3----|-0---------------|-0-------------7---7-5-3-|
E|-----------------|-----------------|-----------------|-------------------------|

   q   q   q  ss e   q   q   q  ss     q   q   q   q     q   q   q   q                   
G|-----------------|-----------------|-----------------|-----------------|
D|-7-------7---7-5-|-3-------3---3---|-----5---5---5---|-----7---7---7---|
A|-----7------7----|-----3------3----|-0---------------|-0---------------|
E|-----------------|-----------------|-----------------|-----------------|


[Bridge]

   e e e e e s  s  s  s  e    e e e e e s  s  s  s  e    e e e e e s  s  s  s  e    e e e s e  s  e  e  e
G|-0-0-0-0-0-------12-14-12-|-0-0-0-0-0-------12-14-12-|-0-0-0-0-0-------12-14-12-|-0-0-0-0/17-17-16-14-12-|
D|-----------12-14----------|-----------12-14----------|-----------12-14----------|------------------------|
A|--------------------------|--------------------------|--------------------------|------------------------|
E|--------------------------|--------------------------|--------------------------|------------------------|

   e e e e e s  s  s  s  e    e e e e e s  s  s  s  e    e e e e e s  s  s  s  e    e s s e s s e s s e s s
G|-0-0-0-0-0-------12-14-12-|-0-0-0-0-0-------12-14-12-|-0-0-0-0-0-------12-14-12-|-0-0-0-0-0-2-0-0-2-0-0---|
D|-----------12-14----------|-----------12-14----------|-----------12-14----------|-----------------------4-|
A|--------------------------|--------------------------|--------------------------|-------------------------|
E|--------------------------|--------------------------|--------------------------|-------------------------|

   e s s e s s e s s e s s
G|-------------------------|
D|-3-3-3-3-3-3-3-3-3-3-3-3-|
A|-------------------------|
E|-------------------------|


[Verse]

   q    H      s s  s s   H+q         e  s s   H+q     s s s s   H+q      e s s
G|----------------------|--------------------|-----------------|-----------------|
D|-10---R------10---7-10|-R-----------10-7-5-|-R-------5-----5-|-R--------5-7-10-|
A|---------------10-----|--------------------|-----------5-7---|-----------------|
E|----------------------|--------------------|-----------------|-----------------|

   H+q         s s  s s   H+q         e  s s   H+q     s s s s   w
G|----------------------|--------------------|-----------------|-----------------|
D|-R-----------10---7-10|-R-----------10-7-5-|-R-------5-----5-|-R---------------|
A|---------------10-----|--------------------|-----------5-7---|-----------------|
E|----------------------|--------------------|-----------------|-----------------|

   q   q   q  s s e   q   q   q   q     q   q   q  s s e   q   q   q   q
G|------------------|-----------------|------------------|-----------------|
D|------------------|-----------------|------------------|-----------------|
A|------------------|-----3-------5---|------------------|-----3-------5---|
E|-5---0---5--0-5-3-|-1-------3-------|-5---0---5--0-5-3-|-1-------3-------|


[Chorus/Outro]

   q   q   q  ss e   q   q   q  ss e   q   q   q   ss e  e e e s e s s s s s e        
G|-----------------|-----------------|-----------------|---------5-5-4-4-2-2-0-|
D|-7-------7---7-5-|-3-------3---3-3-|-5------------5--|---7-7-7---------------|
A|-----7------7----|-----3------3----|-----0---0---0-0-|-0---------------------|
E|-----------------|-----------------|-----------------|-----------------------|

   q   q   q  ss e   q   q   q  ss e   q   q   q   ss e   e e e s e s s s s s s s       
G|-----------------|-----------------|------------------|-------------------------|
D|-7-------7---7-5-|-3-------3---3-3-|-5-------5----5-5-|-7-7-7-5-7-7-7-7-5-7-5-7-|
A|-----7------7----|-----3------3----|-----0-------0----|-------------------------|
E|-----------------|-----------------|------------------|-------------------------|

   q   q   q  ss e   q   q   e s s e e   q   q   e s s e e   s  s  s  s  s e+s s  s  s  s  s  s  s  s    
G|-----------------|-------------------|-------------------|-------------12h14-------14h16-14-12-------|
D|-7-------7---7-5-|-3---3---3-3-3-3-3-|-5-------5-5-5---5-|-12h14-12h14-------12h14-------------14-12-|
A|-----7------7----|-------------------|-----0---------0---|-------------------------------------------|
E|-----------------|-------------------|-------------------|-------------------------------------------|

   q   q   e.s e e      q   q   e.s e e   q   q   e s s e e   s  s s  s s  s s  s s  s s  s  s  s s  s    
G|--------------------|-----------------|-------------------|------14p12-----14p12-----14p12-14p12------|
D|-7------------------|---------3---3---|-5-------5-5-5---5-|-12h14-----12h14-----12h14-----------14p12-|
A|-----7--------------|-----3-----3---3-|-----0---------0---|-------------------------------------------|
E|---------5-5-5-3----|-1---------------|-------------------|-------------------------------------------|

   q   q   q  ss e   q   e. ss s e e e   q   q   q   ss e  e e e s e s s s s s e         
G|-----------------|-------------------|-----------------|---------5-5-4-4-2-2-0-|  [Fade out]
D|-7-------7---7-5-|-3-------3-------3-|-5-------5----5--|---7-7-7---------------|
A|-----7------7----|-----3--3--3---3---|-----0-------0-0-|-0---------------------|
E|-----------------|-------------1-----|-----------------|-----------------------|            
Submit corrections

↑ Back to top | Tablatures and chords for acoustic guitar and electric guitar, ukulele, drums are parodies/interpretations of the original songs. You may use it for private study, scholarship, research or language learning purposes only