» » »

Billy Joel - You May Be Right Bass

Artists:  A B C D E F G H I J K L M N O P Q R S T U V W X Y Z # 

You May Be Right Bass

(ver. 1) Click to play this song!
Billy Joel
 Rating:
4.3/5 (28 votes)

 You May Be Right lessons Tabs too difficult? Try these video lessons and learn fast
 
                [INTRO]

G|--------------------------------|------------------------14--(14)\-|
D|--------------------------------|----------------------------------|
A|0-------------------------------|{0}-------------------------------|
E|--------------------------------|----------------------------------|



G|14------------------------------|{14}----------------------------|
D|--------------------------------|--------------------------------|
A|--------------------------------|--------------------------------|
E|--------------------------------|--------------------0---2---3---|



G|--------------------------------|--------------------------------|
D|--------------------------------|--------------------------------|
A|--------------------------------|--------------------------------|
E|5-----------5---5---------------|5-----------5---5---------------|



[VERSE 1]

   3x
G||--------------------------------||--------------------------------|
D||--------------------------------||--------------------------------|
A||--------------------------------||--------------------------------|
E||5-----------5---5---------------||5-----------5---5-------0---3---|



G|--------------------------------|--------------------------------|
D|--------------------------------|--------------------------------|
A|--------------------------------|----------------------------4---|
E|5-----------5---5---------------|5-----------5---5-------5-------|



G|--------------------------------|--------------------------------|
D|--------------------------------|--------------------------------|
A|--------------------------------|--------------------7\----------|
E|0-----------0---0---------------|0-----------0---0---------------|



G|--------------------------------|--------------------------------|
D|--------------------------------|--------------------------------|
A|2-----------2---2---------------|2-----------2---2-------2---0---|
E|--------------------------------|--------------------------------|



G|--------------------------------|--------------------------------|
D|--------------------------------|--------------------------------|
A|--------------------------------|--------------------------------|
E|3-----------3---3---------------|3-----------3---3-----------3---|



G|--------------------------------|--------------------------------|
D|--------------------------------|--------------------------------|
A|--------------------------------|--------------------------------|
E|0-----------0---0---------------|0-----------0---0-----------0---|



G|--------------------------------|--------------------------------|
D|--------------------------------|--------------------------------|
A|--------------------------------|--------------------------------|
E|5-----------5---5---------------|5-----------5---5-------0-------|


   2x
G||--------------------------------|--------------------------------||
D||--------------------------------|--------------------------------||
A||--------------------------------|--------------------------------||
E||5-----------5---5---------------|5-----------5---5---0---2---3---||



G|--------------------------------|--------------------------------|
D|--------------------------------|--------------------------------|
A|--------------------------------|----------------4-----------5---|
E|5-----------5---5---------------|5-----------5-------------------|



G|--------------------------------|--------------------------------|
D|--------------------------------|--------------------------------|
A|7-----------7---7---------------|7-----------7---7\--------------|
E|--------------------------------|--------------------------------|



G|--------------------------------|--------------------------------|
D|----------------4-----------4---|--------------------------------|
A|2-----------2-------------------|2-----------2---2-------0-------|
E|--------------------------------|--------------------------------|



G|--------------------------------|--------------------------------|
D|--------------------------------|--------------------------------|
A|--------------------------------|--------------------------------|
E|3-----------3---3-----------3---|3-----------3---3---3---2---2---|



G|--------------------------------|--------------------------------|
D|--------------------------------|--------------------------------|
A|--------------------------------|--------------------------------|
E|0-----------0---0---------------|0-----------0---0-r---------0---|



G|--------------------------------|--------------------------------|
D|--------------------------------|--------------------------------|
A|--------------------------------|----------------------------5---|
E|5-----------5---5-----------5---|5-r-----------------------------|



[CHORUS 1]

G|--------------------------------|--------------------------------|
D|--------------------------------|--------------------------------|
A|7---7---------------2---4---2---|--------------------------------|
E|--------0---3---4---------------|0-r-------------------------0---|



G|--------------------------------|--------------------------------|
D|--------------------------------|7-r-----------------------------|
A|--------4---5---7-------4---7---|----------------------------7---|
E|5---5---------------0-----------|--------------------------------|



G|--------------------------------|--------------------------------|
D|--------------------------------|--------------------------------|
A|7-----------7---7\--------------|5-----------5---5/--------------|
E|--------------------------------|--------------------------------|



G|--------------------------------|--------------------------------|
D|--------------------------------|--------------------------------|
A|9-----------9---9/--------------|12-r------------------------5---|
E|--------------------------------|--------------------------------|



G|--------------------------------|--------------------------------|
D|--------------------------------|--------------------------------|
A|7---7---------------------------|7-r-------------------------0---|
E|--------0---3---4---0---5---7---|--------------------------------|



G|--------------------------------|--------------------------------|
D|--------------------------------|--------------------------------|
A|--------4---5---7-------4---7---|--------------------------------|
E|5---5---------------0-----------|5---------------------------5---|



G|--------------------------------|--------------------------------|
D|--------------------------------|--------------------------------|
A|5-----------5---5/--------------|7-----------7---7\--------------|
E|--------------------------------|--------------------------------|



G|--------------------------------|--------------------------------|
D|--------------------------------|------------------------7/------|
A|0-----------0---0---------------|0-----------0---0---------------|
E|--------------------------------|--------------------------------|



G|--------------------------------|--------------------------------|
D|(19)----------------------------|--------------------------------|
A|0-----------0---0---------------|--------------------------------|
E|--------------------------------|5-----------5---5---0---2---3---|



[VERSE 2]

   2x
G||--------------------------------|--------------------------------||
D||--------------------------------|--------------------------------||
A||--------------------------------|--------------------------------||
E||5-----------5---5---------------|5-----------5---5---------------||



G|--------------------------------|--------------------------------|
D|--------------------------------|--------------------------------|
A|--------------------------------|----4-r-----5-r-----6-r-----6---|
E|5-----------5---5---------------|5-------------------------------|



G|--------------------------------|--------------------------------|
D|--------------------------------|--------------------------------|
A|7-----------7-------------------|7-----------7-------7-r-----0---|
E|----------------0-----------0---|----------------0---------------|



G|--------------------------------|4---------------4\------2-------|
D|----------------4-----------4---|------------4-------------------|
A|2-----------2-------------------|--------------------------------|
E|--------------------------------|--------------------------------|



G|--------------------------------|--------------------------------|
D|5-----------5-------------------|----------------5-------4-------|
A|----------------5-----------5---|--------------------------------|
E|--------------------------------|3-----------3-------------------|



G|--------------------------------|--------------------------------|
D|2-----------2-------------------|--------------------------------|
A|----------------2-----------2---|--------------------------------|
E|--------------------------------|0-----------0---2---3-r-----4---|



G|--------------------------------|--------------------------------|
D|--------------------------------|--------------------7-----------|
A|--------------------------------|--------------------------------|
E|5-----------5---5---------------|5-----------5---5---------------|



G|--------------------------------|--------------------------------|
D|--------------------------------|--------------------7-----------|
A|--------------------------------|----------------------------7---|
E|5-----------5---5-----------5---|5-----------5---5---------------|



G|--------------------------------|--------------------------------|
D|--------------------------------|--------------------------------|
A|--------------------------------|--------------------7-------7---|
E|5-----------5---5-----------5---|5-----------5---5---------------|



G|--------------------------------|----6-r-----7-r-----8-r-----8---|
D|--------------------------------|--------------------------------|
A|--------------------------------|--------------------------------|
E|5-----------5---5-----------5---|5-------------------------------|



G|--------------------------------|--------------------------------|
D|--------------------------------|--------------------------------|
A|7-----------7---7---------------|7-----------7---7-------7-------|
E|--------------------------------|--------------------------------|

              

G|--------------------------------|4---------------4\-------2------|
D|----------------4-----------4---|------------4-------------------|
A|2-----------2-------------------|--------------------------------|
E|--------------------------------|--------------------------------|



G|--------------------------------|--------------------------------|
D|5-----------5-------------------|----------------5-------4-------|
A|----------------5-----------5---|--------------------------------|
E|--------------------------------|3-----------3-------------------|



G|--------------------------------|--------------------------------|
D|2-----------2-------------------|--------------------------------|
A|----------------2-----------2---|--------------------------------|
E|--------------------------------|0-----------0---2---3-r-----4---|



G|--------------------------------|--------------------------------|
D|--------------------------------|--------------------------------|
A|--------------------------------|--------------------------------|
E|5-----------5---5-----------5---|5-r-----------------------------|



[CHORUS 2]

G|--------------------------------|--------------------------------|
D|--------------------------------|--------------------------------|
A|7---7---------------2---4---2---|--------------------------------|
E|--------0---3---4---------------|0-r-------------------------0---|



G|--------------------------------|--------------------------------|
D|--------------------------------|7-r-----------------------------|
A|--------4---5---7-------4---7---|----------------------------7---|
E|5---5---------------0-----------|--------------------------------|



G|--------------------------------|--------------------------------|
D|--------------------------------|--------------------------------|
A|7-----------7---7\--------------|5-----------5---5/--------------|
E|--------------------------------|--------------------------------|



G|--------------------------------|--------------------------------|
D|--------------------------------|--------------------------------|
A|9-----------9---9/--------------|12-r------------------------5---|
E|--------------------------------|--------------------------------|



G|--------------------------------|--------------------------------|
D|--------------------------------|--------------------------------|
A|7---7---------------------------|7-r-------------------------0---|
E|--------0---3---4---0---5---7---|--------------------------------|



G|--------------------------------|--------------------------------|
D|--------------------------------|--------------------------------|
A|--------4---5---7-------4---7---|------------2-r-----3-r-----4---|
E|5---5---------------0-----------|5-------------------------------|



G|--------------------------------|--------------------------------|
D|--------------------------------|--------------------------------|
A|5-----------5---5/--------------|7-----------7---7\--------------|
E|--------------------------------|--------------------------------|



G|--------------------------------|--------------------------------|
D|--------------------------------|--------------------------------|
A|--------------------------------|--------------------------------|
E|5-----------5---5---------------|5-----------5---5-----------0---|



[SOLO]

   2x
G||--------------------------------|--------------------------------||
D||--------------------------------|--------------------------------||
A||--------------------------------|--------------------------------||
E||5-----------5---5---------------|5-----------5---5---------------||



G|--------------------------------|--------------------------------|
D|--------------------------------|----7-r-------------------------|
A|--------------------------------|------------5-r-----6-r-----6---|
E|5-----------5---5---------------|5-------------------------------|



G|--------------------------------|--------------------------------|
D|--------------------------------|--------------------------------|
A|--------------------------------|----------------/--(18)---------|
E|0-----------0---0-----------0---|0-------------------------------|



G|--------------------------------|4---------------4\------2-------|
D|----------------4-----------4---|------------4-------------------|
A|2-----------2-------------------|--------------------------------|
E|--------------------------------|--------------------------------|



G|--------------------------------|--------------------------------|
D|5-----------5-------------------|5---------------5-------4-------|
A|----------------5-----------5---|------------5-------------------|
E|--------------------------------|--------------------------------|



G|--------------------------------|--------------------------------|
D|2-----------2-------------------|--------------------------------|
A|----------------2-----------2---|--------------------------------|
E|--------------------------------|0-----------0---2---3-r-----4---|



G|--------------------------------|--------------------------------|
D|--------------------------------|--------------------------------|
A|--------------------------------|--------------------------------|
E|5-----------5---5---------------|5/-----(19)---------------------|



[CHORUS 3 / OUTRO]

G|--------------------------------|--------------------------------|
D|--------------------------------|--------------------------------|
A|7---7---------------2---4---2---|--------------------------------|
E|--------0---3---4---------------|0-r-------------------------0---|



G|--------------------------------|--------------------------------|
D|--------------------------------|7-r-----------------------------|
A|--------4---5---7-------4---7---|----------------------------7---|
E|5---5---------------0-----------|--------------------------------|



G|--------------------------------|--------------------------------|
D|--------------------------------|--------------------------------|
A|7-----------7---7\--------------|5-----------5---5/--------------|
E|--------------------------------|--------------------------------|



G|--------------------------------|--------------------------------|
D|--------------------------------|--------------------------------|
A|9-----------9---9/--------------|12-r------------------------5---|
E|--------------------------------|--------------------------------|



G|--------------------------------|--------------------------------|
D|--------------------------------|--------------------------------|
A|7---7---------------------------|7-r-------------------------0---|
E|--------0---3---4---0---5---7---|--------------------------------|



G|--------------------------------|--------------------------------|
D|--------------------------------|--------------------------------|
A|--------4---5---7-------4---7---|--------------------------------|
E|5---5---------------0-----------|5---------------------------5---|



G|--------------------------------|--------------------------------|
D|--------------------------------|--------------------------------|
A|5-----------5---5/--------------|7-----------7---7\--------------|
E|--------------------------------|--------------------------------|


   To Fade ....
G||--------------------------------|--------------------------------||
D||--------------------------------|--------------------------------||
A||0---0---0---0---0---0---0---0---|0---0---0---0---0---0---0---0---||
E||--------------------------------|--------------------------------||            
Submit corrections


        You May Be Right lessons Hard to play? Try these video lessons and learn fast You May Be Right lessons
        
↑ Back to top | Tablatures and chords for acoustic guitar and electric guitar, ukulele, drums are parodies/interpretations of the original songs. You may use it for private study, scholarship, research or language learning purposes only