» » »

Billy Joel - Pressure Tabs

Artists:  A B C D E F G H I J K L M N O P Q R S T U V W X Y Z # 

Pressure Tabs

(ver. 1) Click to play this song!
Billy Joel
 Rating:
4.3/5 (16 votes)

 Pressure lessons Tabs too difficult? Try these video lessons and learn fast
 
                 Intro
  Q=150
             G5/D                                D5
 4/4
  Gtr I (El. Gtr. w/ light dist.)
             PM------------------------------------------------|
  W          E E E E E E E E   E E E E E E E E   E E E E E E E E
|----------|-----------------|-----------------|-----------------|
|----------|-----------------|-----------------|-----------------|
|----------|-----------------|-----------------|-----------------|
|----------|-5-5-5-5-5-5-5-5-|-5-5-5-5-5-5-5-5-|-7-7-7-7-7-7-7-7-|
|----------|-5-5-5-5-5-5-5-5-|-5-5-5-5-5-5-5-5-|-5-5-5-5-5-5-5-5-|
|----------|-----------------|-----------------|-----------------|


                    G5/D                                D5
  PM------------------------------------------------------------------|
  E E E E E E E E   E E E E E E E E   E E E E E E E E   E E E E E E E E
|-----------------|-----------------|-----------------|-----------------|
|-----------------|-----------------|-----------------|-----------------|
|-----------------|-----------------|-----------------|-----------------|
|-7-7-7-7-7-7-7-7-|-5-5-5-5-5-5-5-5-|-5-5-5-5-5-5-5-5-|-7-7-7-7-7-7-7-7-|
|-5-5-5-5-5-5-5-5-|-5-5-5-5-5-5-5-5-|-5-5-5-5-5-5-5-5-|-5-5-5-5-5-5-5-5-|
|-----------------|-----------------|-----------------|-----------------|


                    N.C.
  PM------------------------------------------------------------------|
  E E E E E E E E   E E E E E E E E   E E E E E E E E   E E E E E E E E
|-----------------|-----------------|-----------------|-----------------|
|-----------------|-----------------|-----------------|-----------------|
|-----------------|-----------------|-----------------|-----------------|
|-7-7-7-7-7-7-7-7-|-----------------|-----------------|-----------------|
|-5-5-5-5-5-5-5-5-|-5-5-5-5-5-5-5-5-|-5-5-5-5-5-5-5-5-|-5-5-5-5-5-5-5-5-|
|-----------------|-----------------|-----------------|-----------------|


  PM------------------------------------------------------------------|
  E E E E E E E E   E E E E E E E E   E E E E E E E E   E E E E E E E E
|-----------------|-----------------|-----------------|-----------------|
|-----------------|-----------------|-----------------|-----------------|
|-----------------|-----------------|-----------------|-----------------|
|-----------------|-----------------|-----------------|-----------------|
|-5-5-5-5-5-5-5-5-|-5-5-5-5-5-5-5-5-|-5-5-5-5-5-5-5-5-|-5-5-5-5-5-5-5-5-|
|-----------------|-----------------|-----------------|-----------------|


                     1st, 3rd & 5th Verses
                  $
                      G5                                  D5
  PM--------------------------------------------------------------------|
  E E E E E E E E     E E E E E E E E   E E E E E E E E   E E E E E E E E
|-----------------||------------------|-----------------|-----------------|
|-----------------||o-----------------|-----------------|-----------------|
|-----------------||------------------|-----------------|-----------------|
|-----------------||------------------|-----------------|-7-7-7-7-7-7-7-7-|
|-5-5-5-5-5-5-5-5-||o-5-5-5-5-5-5-5-5-|-5-5-5-5-5-5-5-5-|-5-5-5-5-5-5-5-5-|
|-----------------||--3-3-3-3-3-3-3-3-|-3-3-3-3-3-3-3-3-|-----------------|


          C/G D/A   G5                                  D5
  PM----|           PM------------------------------------------------|
  E E E E E E E E   E E E E E E E E   E E E E E E E E   E E E E E E E E
|-----------------|-----------------|-----------------|-----------------|
|---------5---7---|-----------------|-----------------|-----------------|
|---------5---7---|-----------------|-----------------|-----------------|
|-7-7-7-7-5---7---|-----------------|-----------------|-7-7-7-7-7-7-7-7-|
|-5-5-5-5---------|-5-5-5-5-5-5-5-5-|-5-5-5-5-5-5-5-5-|-5-5-5-5-5-5-5-5-|
|-----------------|-3-3-3-3-3-3-3-3-|-3-3-3-3-3-3-3-3-|-----------------|


                    2nd, 4th & 6th Verses
          C/G D/A    G5                C5      A/C#      D5
  PM----|            PM------------------------------------------------|
  E E E E E E E E    E E E E E E E E   E E E E E E E E   E E E E E E E E
|-----------------||-----------------|-----------------|-----------------|
|---------5---7---||-----------------|-----------------|-----------------|
|---------5---7---||-----------------|-----------------|-----------------|
|-7-7-7-7-5---7---||-----------------|-5-5-5-5-7-7-7-7-|-7-7-7-7-7-7-7-7-|
|-5-5-5-5---------||-5-5-5-5-5-5-5-5-|-3-3-3-3-4-4-4-4-|-5-5-5-5-5-5-5-5-|
|-----------------||-3-3-3-3-3-3-3-3-|-----------------|-----------------|


                    Bb5               F/A               G5
  PM--------|       PM------------------------------------------------|
  E E E E E E Q     E E E E E E E E   E E E E E E E E   E E E E E E E E
|-----------------|-----------------|-----------------|-----------------|
|-----------------|-----------------|-----------------|-----------------|
|-----------------|-----------------|-----------------|-----------------|
|-7-7-7-7-7-7-7\--|-3-3-3-3-3-3-3-3-|-3-3-3-3-3-3-3-3-|-----------------|
|-5-5-5-5-5-5-5\--|-1-1-1-1-1-1-1-1-|-0-0-0-0-0-0-0-0-|-5-5-5-5-5-5-5-5-|
|-----------------|-----------------|-----------------|-3-3-3-3-3-3-3-3-|


  Dsus2/E A/C#      D5                Bb5               F/A
  PM------------------------------------------------------------------|
  E E E E E E E E   E E E E E E E E   E E E E E E E E   E E E E E E E E
|-----------------|-----------------|-----------------|-----------------|
|-----------------|-----------------|-----------------|-----------------|
|-----------------|-----------------|-----------------|-----------------|
|---------7-7-7-7-|-7-7-7-7-7-7-7-7-|-3-3-3-3-3-3-3-3-|-3-3-3-3-3-3-3-3-|
|-5-5-5-5-4-4-4-4-|-5-5-5-5-3-3-3-3-|-1-1-1-1-1-1-1-1-|-0-0-0-0-0-0-0-0-|
|-0-0-0-0---------|-----------------|-----------------|-----------------|


                    Chorus
  Dsus2/E A/C#       N.C.
  PM-------------------------------------------------------------------|
  E E E E E E E E    E E E E E E E E   E E E E E E E E   E E E E E E E E
|-----------------||-----------------|-----------------|-----------------|
|-----------------||-----------------|-----------------|-----------------|
|-----------------||-----------------|-----------------|-----------------|
|---------7-7-7-7-||-----------------|-----------------|-----------------|
|-5-5-5-5-4-4-4-4-||-5-5-5-5-5-5-5-5-|-5-5-5-5-5-5-5-5-|-5-5-5-5-5-5-5-5-|
|-0-0-0-0---------||-----------------|-----------------|-----------------|


  PM---------------------------------------------------
  E E E E E E E E   E E E E E E E E   E E E E E E E E
|-----------------|-----------------|-----------------|
|-----------------|-----------------|-----------------|
|-----------------|-----------------|-----------------|
|-----------------|-----------------|-----------------|
|-5-5-5-5-5-5-5-5-|-5-5-5-5-5-5-5-5-|-5-5-5-5-5-5-5-5-|
|-----------------|-----------------|-----------------|


                   1.
 ---------------------------------|
  E E E E E E E E   E E E E E E E E
|-----------------|------------------||
|-----------------|-----------------o||
|-----------------|------------------||
|-----------------|------------------||
|-5-5-5-5-5-5-5-5-|-5-5-5-5-5-5-5-5-o||
|-----------------|------------------||


                    Bridge
  2.,D.S.
                     N.C.
  PM------------|
  E E E E E E E E    Q  E E Q  Q    Q  Q  H      Q  Q  Q  Q
|-----------------||--------------|------------|-------------|
|-----------------||----3---2-----|-0-----2----|-3--2--0--2--|
|-----------------||------0----0--|----0-------|-2--2--2--2--|
|-----------------||--------------|------------|-------------|
|-5-5-5-5-5-5-5-5-||--------------|------------|-------------|
|-----------------||--------------|------------|-------------|


  +Q   Q  Q  Q    Q  Q  Q  Q    Q  Q  H      Q  Q  Q  Q
|---------------|-------------|------------|-------------|
|-(2)-----2--3--|-3-----2-----|-0-----2----|-3--2--0--2--|
|-(2)--2--2--2--|----0-----0--|----0--0----|-2--2--2--2--|
|---------------|-------------|------------|-------------|
|---------------|-------------|------------|-------------|
|---------------|-------------|------------|-------------|


  +Q   Q  Q  Q    H    H      H    H      Q  Q  Q  Q
|---------------|-----------|-----------|-------------|
|-(2)-----2-----|-1----0----|------0----|-1--0-----0--|
|-(2)--2-----2--|-2----0----|-2----0----|-0--0--2--0--|
|---------------|-----------|-3---------|-------2-----|
|---------------|-----------|-----------|-------------|
|---------------|-----------|-----------|-------------|


  Q  Q  Q  Q    Q  Q  Q  Q    Q  Q  E E Q    Q  Q  Q  Q
|-------------|-------------|--------------|-3--2--0--2--|
|-------------|-1--0-----0--|-------0-0----|-3--3--1--3--|
|----0-----0--|-0--0--0--0--|----0---------|-------------|
|-2-----2-----|-------1-----|-1---------1--|-------------|
|-------------|-------------|--------------|-------------|
|-------------|-------------|--------------|-------------|


               Interlude
                G5                                  D5
                PM------------------------------------------------|
  +W            E E E E E E E E   E E E E E E E E   E E E E E E E E
|-(2)--------||-----------------|-----------------|-----------------|
|-(3)--------||-3-3-3-3-3-3-3-3-|-3-3-3-3-3-3-3-3-|-----------------|
|------------||-0-0-0-0-0-0-0-0-|-0-0-0-0-0-0-0-0-|-7-7-7-7-7-7-7-7-|
|------------||-0-0-0-0-0-0-0-0-|-0-0-0-0-0-0-0-0-|-7-7-7-7-7-7-7-7-|
|------------||-x-x-x-x-x-x-x-x-|-x-x-x-x-x-x-x-x-|-5-5-5-5-5-5-5-5-|
|------------||-3-3-3-3-3-3-3-3-|-3-3-3-3-3-3-3-3-|-----------------|


                    G5
  PM---------------------------------------------------
  E E E E E E E E   E E E E E E E E   E E E E E E E E
|-----------------|-----------------|-----------------|
|-----------------|-3-3-3-3-3-3-3-3-|-3-3-3-3-3-3-3-3-|
|-7-7-7-7-7-7-7-7-|-0-0-0-0-0-0-0-0-|-0-0-0-0-0-0-0-0-|
|-7-7-7-7-7-7-7-7-|-0-0-0-0-0-0-0-0-|-0-0-0-0-0-0-0-0-|
|-5-5-5-5-5-5-5-5-|-x-x-x-x-x-x-x-x-|-x-x-x-x-x-x-x-x-|
|-----------------|-3-3-3-3-3-3-3-3-|-3-3-3-3-3-3-3-3-|


           To Coda       D.S. al Coda
  D5
 ----------------------------------|
  E E E E E E E E    E E E E E E E E
|------------------|-------------------||
|------------------|-------------------||
|-7-7-7-7-7-7-7-7--|-7-7-7-7-7-7-7-7---||
|-7-7-7-7-7-7-7-7--|-7-7-7-7-7-7-7-7---||
|-5-5-5-5-5-5-5-5--|-5-5-5-5-5-5-5-5---||
|------------------|-------------------||


                 7th Verse
  &
       D5         G5                C5      A/C#      D5
                  PM------------------------------------------------|
  H    E E E E    E E E E E E E E   E E E E E E E E   E E E E E E E E
|--------------||-----------------|-----------------|-----------------|
|--------------||-----------------|-----------------|-----------------|
|------7---7---||-----------------|-----------------|-----------------|
|------7---7---||-----------------|-5-5-5-5-7-7-7-7-|-7-7-7-7-7-7-7-7-|
|------5---5---||-5-5-5-5-5-5-5-5-|-3-3-3-3-4-4-4-4-|-5-5-5-5-5-5-5-5-|
|--------------||-3-3-3-3-3-3-3-3-|-----------------|-----------------|


          Am/C      Bb5               F/A               G5
  PM------------------------------------------------------------------|
  E E E E E E E E   E E E E E E E E   E E E E E E E E   E E E E E E E E
|-----------------|-----------------|-----------------|-----------------|
|-----------------|-----------------|-----------------|-----------------|
|-----------------|-----------------|-----------------|-----------------|
|-7-7-7-7-7-7-7-7-|-3-3-3-3-3-3-3-3-|-3-3-3-3-3-3-3-3-|-----------------|
|-5-5-5-5-3-3-3-3-|-1-1-1-1-1-1-1-1-|-0-0-0-0-0-0-0-0-|-5-5-5-5-5-5-5-5-|
|-----------------|-----------------|-----------------|-3-3-3-3-3-3-3-3-|


  Dsus2/E A/C#      D5                Bb5               F/A
  PM------------------------------------------------------------------|
  E E E E E E E E   E E E E E E E E   E E E E E E E E   E E E E E E E E
|-----------------|-----------------|-----------------|-----------------|
|-----------------|-----------------|-----------------|-----------------|
|-----------------|-----------------|-----------------|-----------------|
|---------7-7-7-7-|-7-7-7-7-7-7-7-7-|-3-3-3-3-3-3-3-3-|-3-3-3-3-3-3-3-3-|
|-5-5-5-5-4-4-4-4-|-5-5-5-5-3-3-3-3-|-1-1-1-1-1-1-1-1-|-0-0-0-0-0-0-0-0-|
|-0-0-0-0---------|-----------------|-----------------|-----------------|


                    Outro
  Dsus2/E A/C#       N.C.
  PM-------------------------------------------------------------------|
  E E E E E E E E    E E E E E E E E   E E E E E E E E   E E E E E E E E
|-----------------||-----------------|-----------------|-----------------|
|-----------------||-----------------|-----------------|-----------------|
|-----------------||-----------------|-----------------|-----------------|
|---------7-7-7-7-||-----------------|-----------------|-----------------|
|-5-5-5-5-4-4-4-4-||-5-5-5-5-5-5-5-5-|-5-5-5-5-5-5-5-5-|-5-5-5-5-5-5-5-5-|
|-0-0-0-0---------||-----------------|-----------------|-----------------|


  PM------------------------------------------------------------------|
  E E E E E E E E   E E E E E E E E   E E E E E E E E   E E E E E E E E
|-----------------|-----------------|-----------------|-----------------|
|-----------------|-----------------|-----------------|-----------------|
|-----------------|-----------------|-----------------|-----------------|
|-----------------|-----------------|-----------------|-----------------|
|-5-5-5-5-5-5-5-5-|-5-5-5-5-5-5-5-5-|-5-5-5-5-5-5-5-5-|-5-5-5-5-5-5-5-5-|
|-----------------|-----------------|-----------------|-----------------|


  PM------------------------------------------------|
  E E E E E E E E   E E E E E E E E   E E E E E E E E
|-----------------|-----------------|-----------------|
|-----------------|-----------------|-----------------|
|-----------------|-----------------|-----------------|
|-----------------|-----------------|-----------------|
|-5-5-5-5-5-5-5-5-|-5-5-5-5-5-5-5-5-|-5-5-5-5-5-5-5-5-|
|-----------------|-----------------|-----------------|


                                      D5
  PM------------------------------|
  E E E E E E E E   E E E E E E E E   Q  Q  H
|-----------------|-----------------|------------*|
|-----------------|-----------------|------------*|
|-----------------|-----------------|-7--7-------*|
|-----------------|-----------------|-7--7-------*|
|-5-5-5-5-5-5-5-5-|-5-5-5-5-5-5-5-5-|-5--5-------*|
|-----------------|-----------------|------------*|            
Submit corrections


        Pressure lessons Hard to play? Try these video lessons and learn fast Pressure lessons
        
↑ Back to top | Tablatures and chords for acoustic guitar and electric guitar, ukulele, drums are parodies/interpretations of the original songs. You may use it for private study, scholarship, research or language learning purposes only