» » »

Billy Joel - Honesty Tabs

Artists:  A B C D E F G H I J K L M N O P Q R S T U V W X Y Z # 

Honesty Tabs

(ver. 1) Click to play this song!
Billy Joel
 Rating:
2.8/5 (27 votes)

 Honesty lessons Tabs too difficult? Try these video lessons and learn fast
 
                 Intro                  1st Verse
  Q=68
  N.C.                   N.C.
 4/4
  Gtr I (Ac. Gtr.)
  W          W           W          W
|----------|----------||----------|------|
|----------|----------||----------|------|
|----------|----------||----------|------|
|----------|----------||----------|------|
|----------|----------||----------|------|
|----------|----------||----------|------|


  W          W          W          W
|----------|----------|----------|------|
|----------|----------|----------|------|
|----------|----------|----------|------|
|----------|----------|----------|------|
|----------|----------|----------|------|
|----------|----------|----------|------|


                        Chorus
                         N.C.
  W          W           W          W
|----------|----------||----------|------|
|----------|----------||----------|------|
|----------|----------||----------|------|
|----------|----------||----------|------|
|----------|----------||----------|------|
|----------|----------||----------|------|


  W          W          W          W
|----------|----------|----------|------|
|----------|----------|----------|------|
|----------|----------|----------|------|
|----------|----------|----------|------|
|----------|----------|----------|------|
|----------|----------|----------|------|


                        2nd Verse
                           Bb      Eb        F       Dm7
  W          W           E E E E E E E E   E E E E E E E E
|----------|----------||---6-------3-----|---1-------1------|
|----------|----------||-----6-------4---|-----1-------1----|
|----------|----------||-------7-------3-|-------2-------2--|
|----------|----------||-----------------|------------------|
|----------|----------||-----------------|------------------|
|----------|----------||-----------------|------------------|


    Eb      Gm7       Am7   Cm7F      Bb      C       Dm A  Dm
  E E E E E E E E   E E E E Q  Q    E E E E E E E E   Q  Q  E E E E
|---3-------3-----|---0-----3--1--|---1-1-1---0-0-0-|-1--0----1-1-1--|
|-----4-------3---|-----1---4--1--|---3-3-3---1-1-1-|-3--2----3-3-3--|
|-------3-------3-|-------0-3--2--|---3-3-3---0-0-0-|-2--2----2-2-2--|
|-----------------|---------------|---3-3-3---2-2-2-|-0--2--0--------|
|-----------------|---------------|---1-1-1---3-3-3-|----0-----------|
|-----------------|---------------|-----------------|----------------|


                                      Chorus
    Eb    A7          Dsus4   D        N.C.
  E E E E E E E E   E E E E E E E E    W          W
|---3-----0-0-0-0-|---3-3-3---2-2-2-||----------|------|
|-----4---0-2-0-2-|---3-3-3---3-3-3-||----------|------|
|-------3-0-0-0-0-|---2-2-2---2-2-2-||----------|------|
|---------2-2-2-2-|---0-0-0---0-0-0-||----------|------|
|-----------------|-----------------||----------|------|
|-----------------|-----------------||----------|------|


  W          W          W          W
|----------|----------|----------|------|
|----------|----------|----------|------|
|----------|----------|----------|------|
|----------|----------|----------|------|
|----------|----------|----------|------|
|----------|----------|----------|------|


                                   Bridge
                                    Gm          D7
  W          W          W            W          W
|----------|----------|----------||-^3--------|-2----|
|----------|----------|----------||-^3--------|-1----|
|----------|----------|----------||-^3--------|-2----|
|----------|----------|----------||-^5--------|-0----|
|----------|----------|----------||-^5--------|-0----|
|----------|----------|----------||-^3--------|------|


  Fm6        C/E        Eb    F       Eb    Bb
  W          W          Q  Q  Q  Q    Q  Q  Q  Q
|-1--------|-0--------|-3--3--5--5--|-3--3--6--6---|
|-3--------|-1--------|-4--4--6--6--|-4--4--6--6---|
|-1--------|-0--------|-3--3--5--5--|-3--3--7--7---|
|-3--------|-2--------|-5--5--7--7--|-5--5--8--8---|
|-3--------|-3--------|-------------|--------------|
|-1--------|-0--------|-------------|--------------|


                                       3rd Verse
  Gm7   C       F6                        Bb      Eb
  Q  Q  Q  Q    H    H      W           E E E E E E E E
|-3--3--3--3--|-1---------|----------||---6-------3------|
|-3--3--5--5--|-3---------|----------||-----6-7-----4----|
|-3--3--5--5--|-2---------|----------||---------------3--|
|-3--3--5--5--|-3---------|----------||------------------|
|-3--3--3--3--|-----------|----------||------------------|
|-------------|-----------|----------||------------------|


    F       Dm7       Eb      Gm7       Am7   Cm7F      Bb      C
  E E E E E E E E   E E E E E E E E   E E E E Q  Q    E E E E E E E E
|---1-------1-----|---3-------3-----|---0-----3--1--|---1-1-1---0-0-0--|
|-----1-------1---|-----4-------3---|-----1---4--1--|---3-3-3---1-1-1--|
|-------2-------2-|-------3-------3-|-------0-3--2--|---3-3-3---0-0-0--|
|-----------------|-----------------|---------------|---3-3-3---2-2-2--|
|-----------------|-----------------|---------------|---1-1-1---3-3-3--|
|-----------------|-----------------|---------------|------------------|


  Dm A  Dm          Eb    A7          Dsus4   D
  Q  Q  E E E E   E E E E E E E E   E E E E E E E E
|-1--0----1-1-1-|---3-----0-0-0-0-|---3-3-3---2-2-2-||
|-3--2----3-3-3-|-----4---0-2-0-2-|---3-3-3---3-3-3-||
|-2--2----2-2-2-|-------3-0-0-0-0-|---2-2-2---2-2-2-||
|-0--2--0-------|---------2-2-2-2-|---0-0-0---0-0-0-||
|----0----------|-----------------|-----------------||
|---------------|-----------------|-----------------||


 Out-Chorus
  Eb    F       D7    Gm      Eb    F       Bb      D7
  Q  Q  Q  Q    Q  Q  Q  Q    Q  Q  Q  Q    Q  Q  E E E E
|-3--3--1--1--|-2--2--3--3--|-3--3--1--1--|-1--1----2-2-2--|
|-4--4--1--1--|-1--1--3--3--|-4--4--1--1--|-3--3----1-1-1--|
|-3--3--2--2--|-2--2--3--3--|-3--3--2--2--|-3--3----2-2-2--|
|-5--5--3--3--|-0--0--5--5--|-5--5--3--3--|-3--3----0-0-0--|
|-------------|-------------|-------------|----------------|
|-------------|-------------|-------------|----------------|


  Eb    F       D7    Gm      Eb    F  Eb        Bb
  Q  Q  Q  Q    Q  Q  Q  Q    Q  Q  Q  E E   +E  Q.   H
|-3--3--1--1--|-2--2--3--3--|-3--3--1--3-3-|-(3)-1---------|
|-4--4--1--1--|-1--1--3--3--|-4--4--1--4-4-|-(4)-3---------|
|-3--3--2--2--|-2--2--3--3--|-3--3--2--3-3-|-(3)-3---------|
|-5--5--3--3--|-0--0--5--5--|-5--5--3--5-5-|-(5)-3---------|
|-------------|-------------|--------------|-----1---------|
|-------------|-------------|--------------|---------------|


             H.=H
  N.C.
  W          W          W
|----------|----------|------*|
|----------|----------|------*|
|----------|----------|------*|
|----------|----------|------*|
|----------|----------|------*|
|----------|----------|------*|
            
Submit corrections


        Honesty lessons Hard to play? Try these video lessons and learn fast Honesty lessons
        
↑ Back to top | Tablatures and chords for acoustic guitar and electric guitar, ukulele, drums are parodies/interpretations of the original songs. You may use it for private study, scholarship, research or language learning purposes only