Home » B » Billy J Kramer And The Dakotas »

Billy J Kramer And The Dakotas - From A Window Bass

Artists:  A B C D E F G H I J K L M N O P Q R S T U V W X Y Z # 

From A Window Bass

(ver. 1) Click to play this song!
Billy J Kramer And The Dakotas
Billy J. Kramer And The Dakotas
Written by John Lennon and Paul McCartney; released as a single with "Second 
To None" as the B-side, and on the EP "From A Window".

Intro:
G|------- ------- ------- -------|------- ------- ------- -------|
D|-------------------------------|-------------------------------|
A|-------------------------------|-------------------------------|
E|3-----------3---3--------------|3-----------3---3--------------|


Verse:
G|------- ------- ------- -------|------- ------- ------- -------|
D|-------------------------------|-------------------------------|
A|-------------------------------|-------------------------------|
E|3-----------3---3--------------|3-----------3---3--------------|
  Late            yester- day night,              I   saw a   light


G|------- ------- ------- -------|------- ------- ------- -------|
D|-------------------------------|-------------------------------|
A|-------------------------------|-------------------------------|
E|3-----------3---2--------------|0-----------0---7-------0------|
          shine           from a  win  -  dow,


G|------- ------- ------- -------|------- ------- ------- -------|
D|-------------------------------|-------------------------------|
A|-------------------------------|5-----------5---5--------------|
E|5-----------5---5--------------|-------------------------------|
  And         as      I   looked  a -  gain,              your


G|------- ------- ------- -------|------- ------- ------- -------|
D|-------------------------------|-------------------------------|
A|-------------------------------|-------------------------------|
E|3-----------3---3--------------|3-----------3---3--------------|
      face            came into   sight.

Verse:
G|------- ------- ------- -------|------- ------- ------- -------|
D|-------------------------------|-------------------------------|
A|-------------------------------|-------------------------------|
E|3-----------3---3--------------|3-----------3---3--------------|
  I               couldn't walk on,               until you'd gone


G|------- ------- ------- -------|------- ------- ------- -------|
D|-------------------------------|-------------------------------|
A|-------------------------------|-------------------------------|
E|3-----------3---2--------------|0-----------0---7-------0------|
          from            your    win  -  dow,


G|------- ------- ------- -------|------- ------- ------- -------|
D|-------------------------------|-------------------------------|
A|-------------------------------|5-----------5---5--------------|
E|5-----------5---5--------------|-------------------------------|
  I           had     to make you   mine,                 I


G|------- ------- ------- -------|------- ------- ------- -------|
D|-------------------------------|-------------------------------|
A|-------------------------------|----------------0-------2------|
E|3-----------3---3--------------|3-----------3------------------|
  knew                you were the one.

Bridge:
G|------- ------- ------- -------|------- ------- ------- -------|
D|-------------------------------|----------------7---7----------|
A|3---3--------------------------|5---5--------------------------|
E|----------------3---3----------|-------------------------------|
  Oh,         I       would be glad                       just to


G|------- ------- ------- -------|------- ------- ------- -------|
D|5---5--------------------------|5---5--------------------------|
A|----------------5---5----------|----------------2---2----------|
E|-------------------------------|-------------------------------|
  have        a   love like   that,


G|------- ------- ------- -------|------- ------- ------- -------|
D|-------------------------------|-------------------------------|
A|3---3--------------------------|2---2--------------------------|
E|----------------3---3----------|----------------2---2----------|
  Oh,         I       would be true,                  and     I'd


G|------- ------- ------- -------|------- ------- ------- ---2---|
D|2---2--------------------------|-----------2----0----4---------|
A|----------------2---2-------2--|0----4-------------------------|
E|-------------------------------|-------------------------------|
  live    my      life    for     you.

Verse:
G|------- ------- ------- -------|------- ------- ------- -------|
D|-------------------------------|-------------------------------|
A|-------------------------------|-------------------------------|
E|3-----------3---3--------------|3-----------3---3--------------|
  So              meet me tonight,                just    the light
                                                      where

G|------- ------- ------- -------|------- ------- ------- -------|
D|-------------------------------|-------------------------------|
A|-------------------------------|-------------------------------|
E|3-----------3---2--------------|0-----------0---7-------0------|
          shines          from a  win  -  dow,


G|------- ------- ------- -------|------- ------- ------- -------|
D|-------------------------------|-------------------------------|
A|-------------------------------|5-----------5---5--------------|
E|5-----------5---5--------------|-------------------------------|
  And         as      I   take    your hand,              say that


G|------- ------- ------- -------|------- ------- ------- -------|
D|-------------------------------|-------------------------------|
A|-------------------------------|-------------------------------|
E|3-----------3---3--------------|3-----------3---3--------------|
      you'll                          be  mine tonight.

Verse (solo):
G|------- ------- ------- -------|------- ------- ------- -------|
D|-------------------------------|-------------------------------|
A|-------------------------------|-------------------------------|
E|3-----------3---3--------------|3-----------3---3--------------|



G|------- ------- ------- -------|------- ------- ------- -------|
D|-------------------------------|-------------------------------|
A|-------------------------------|-------------------------------|
E|3-----------3---2--------------|0-----------0---7-------0------|



G|------- ------- ------- -------|------- ------- ------- -------|
D|-------------------------------|-------------------------------|
A|-------------------------------|5-----------5---5--------------|
E|5-----------5---5--------------|-------------------------------|



G|------- ------- ------- -------|------- ------- ------- -------|
D|-------------------------------|-------------------------------|
A|-------------------------------|----------------0-------2------|
E|3-----------3---3--------------|3-----------3------------------|


Bridge:
G|------- ------- ------- -------|------- ------- ------- -------|
D|-------------------------------|----------------7---7----------|
A|3---3--------------------------|5---5--------------------------|
E|----------------3---3----------|-------------------------------|
  Oh,         I       would be glad                       just to


G|------- ------- ------- -------|------- ------- ------- -------|
D|5---5--------------------------|5---5--------------------------|
A|----------------5---5----------|----------------2---2----------|
E|-------------------------------|-------------------------------|
  have        a   love like   that,


G|------- ------- ------- -------|------- ------- ------- -------|
D|-------------------------------|-------------------------------|
A|3---3--------------------------|2---2--------------------------|
E|----------------3---3----------|----------------2---2----------|
  Oh,         I       would be true,                  and     I'd


G|------- ------- ------- -------|------- ------- ------- ---2---|
D|2---2--------------------------|-----------2----0----4---------|
A|----------------2---2-------2--|0----4-------------------------|
E|-------------------------------|-------------------------------|
  live    my      life    for     you.

Verse:
G|------- ------- ------- -------|------- ------- ------- -------|
D|-------------------------------|-------------------------------|
A|-------------------------------|-------------------------------|
E|3-----------3---3--------------|3-----------3---3--------------|
  So              meet me tonight,                just    the light
                                                      where

G|------- ------- ------- -------|------- ------- ------- -------|
D|-------------------------------|-------------------------------|
A|-------------------------------|-------------------------------|
E|3-----------3---2--------------|0-----------0---7-------0------|
          shines          from a  win  -  dow,


G|------- ------- ------- -------|------- ------- ------- -------|
D|-------------------------------|-------------------------------|
A|-------------------------------|5-----------5---5--------------|
E|5-----------5---5--------------|-------------------------------|
  And         as      I   take    your hand,              say that


G|------- ------- ------- -------|------- ------- ------- -------|
D|-------------------------------|-------------------------------|
A|6-----------6---6--------------|6-----------6---6--------------|
E|-------------------------------|-------------------------------|
  you'll                                  be      mine    to-

Outro:
G|------- ------- ------- -------|------- ------- 5----4- -------|
D|-------------------------------|---------------------------7---|
A|3-----------3---3--------------|3-----------3------------------|
E|-------------------------------|-------------------------------|
  night.


G|------- ------- ------- -------|------- ------- ------- -------|
D|5------------------------------|-------------------------------|
A|-------------------------------|-------------------------------|
E|-------------------------------|-------------------------------|

Please e-mail me for any corrections, or write a comment.
            
Submit corrections

↑ Back to top | Tablatures and chords for acoustic guitar and electric guitar, ukulele, drums are parodies/interpretations of the original songs. You may use it for private study, scholarship, research or language learning purposes only