Home » B » Billy Fury »

Billy Fury - In Thoughts Of You Bass

Artists:  A B C D E F G H I J K L M N O P Q R S T U V W X Y Z # 

In Thoughts Of You Bass

(ver. 1) Click to play this song!
Billy Fury
In Thoughts Of You
Recorded and released in 1965 by Billy Fury reaching number 9 in
UK charts. Born Ronald Wycherley in Liverpool he was given the
name Billy Fury at his first audition by music mogul of the day
Larry Parnes. This is the agent who auditioned The Beatles and said
They were rubbish!  Tab by bass50611, one of my all time favourites.
Very straight forward and fairly easy.

Intro:
   .       .
G|---------------------------------------|
D|-------------------------------6-6-----|
A|-4---------------------------------6-6-|
E|---------6-------5-55---2-22-----------|

Verse:
G|---------------------------------------------------------------------|
D|--------------------------4-4----------------------------------------|
A|-4-44---------------4-44------4-4---2-22-----------------------------|
E|-------2-22---2-22-----------------------2-22-3---4-44---4-44---5-55-|

G|-------------------------------------------------|
D|-------------------------------------------------|
A|-------5-55---5-55-4-------7-7-------------------|
E|-5-55----------------7-77------7-7---5-55---5-55-|

Chorus:
G|------------------------------------------------|
D|------------------------------------------------|
A|-4-44---4-44-3----------------------------------|
E|---------------6-66---6-66---5-55---2-22---4-44-|

Repeat Verse:

Repeat Chorus

For Solo And Part Verse 3 ~ Use Verse:

Final Chorus:
G|-----------------------------------------|
D|-----------------------------------------|
A|-4-44---4-44-3---------------------------|
E|---------------6-66---6-66---5-55---2-22-|

Outro:                             .       .       .
G|---------------------------------------------------|
D|---------------------------------------------------|
A|-4-44---4-44-3-----------------------------------4-|
E|---------------6-66---6-66-------5-------2---------|
            
Submit corrections

↑ Back to top | Tablatures and chords for acoustic guitar and electric guitar, ukulele, drums are parodies/interpretations of the original songs. You may use it for private study, scholarship, research or language learning purposes only