Home » B » Billy Currington »

Billy Currington - Don't Tabs

Artists:  A B C D E F G H I J K L M N O P Q R S T U V W X Y Z # 

Don't Tabs

(ver. 2) Click to play this song!
Billy Currington
Billy Currington:Don't (Solo)





E-----------------------10-12b(14)-12b(14)-(14)r12p10-12-10-
B--------------10-10/12-------------------------------------
G-----7-9-9/11----------------------------------------------
D-7-9-------------------------------------------------------
A-----------------------------------------------------------
E-----------------------------------------------------------


E-----------------------------------------------------------
B-12----10h12-10------------------7-10----------------------
G----11-------9b(11)-9-9p7-9b(11)------9b(11)-9-7----7b(8)--
D-------------------------------------------------9--------9
A-----------------------------------------------------------
E-----------------------------------------------------------


E------------------------------------------------10-------14
B---------------------7-8-8/10-10\8-------------------------
G---------------------7-9-9/11-11\9-7-----7-9/11----11/14---
D-7---------------7-9-----------------9-7-------------------
A---9\7p5-7-5-7h9-------------------------------------------
E-----------------------------------------------------------


E-------12--10-10-12b(14)-12-10b(12)-7-9----7---------------
B----------------------------------------10---7-10----7-----
G-14\12-----11-11----------------------------------9----7-9-
D-----------------------------------------------------------
A-----------------------------------------------------------
E-----------------------------------------------------------


E------------------------
B------------------------
G----7-------------------
D-9----9-7---------------
A----------9\7p5-7---5-7-
E------------------7-----
            
Submit corrections

↑ Back to top | Tablatures and chords for acoustic guitar and electric guitar, ukulele, drums are parodies/interpretations of the original songs. You may use it for private study, scholarship, research or language learning purposes only