» » »

Bill Monroe - Mother's Not Dead She's Only Sleeping (mandolin) Tabs

Artists:  A B C D E F G H I J K L M N O P Q R S T U V W X Y Z # 

Mother's Not Dead She's Only Sleeping (mandolin) Tabs

(ver. 1) Click to play this song!
Bill Monroe
 Rating:
4/5 (4 votes)

 Mother's Not Dead She's Only Sleeping (mandolin) lessons Tabs too difficult? Try these video lessons and learn fast
 
                Bill Monroe
Mother's Not Dead (She's Only A- Sleeping)

I learned this from a Bill Monroe Boxed Set. So I posted it under Bill Monroe,
but be Sure and See the Chords posted by kb8pbo under Charlie Monroe.
kb8pbo did a wonderful job posting them.

First Solo 


      G       (Tremelo Picking)
----------------3-3-3-3-3-3-3-3----3--3-3-3----3-3-3-3-3-3-
----------2--3--5-5-5-5-5-5-5-5----5--5-5-5----7-5-5-2-2-2-
-5-5---5---------------------------------------------------
-----------------------------------------------------------

 D    (Trem.Picking)                    (Trem. Picking)
----------------------------------------2-2-2-2-2-2---2-----
-3-2--5-5-5-5-5-------5--5-5-5---5-5-5--5-5-5-5-5-5---5-5-5-5--
------7-7-7-7-7-------7--7-7-7---7-9-7----------------------
------------------------------------------------------------

             G
------------------------------------------------------------
-4-5-3-5-1-2------------------------------------------------
-------------5--5-5-5-5-0-3-0-------------------------------
-------------------------------3-4-0--0---------------------

                   (Trem Picking)
------------------------------------------------------------
-------------------2-2-2-2-2-2--2----2----------------------
----------0-0-2-0--5-5-5-5-5-5--5----5----------------------
--3(H)4-4---------------------------------------------------
Second Solo
      G          (Trem Picking---)
-------------3---7--7--7--7--7--7----7-----7--7--7----------
----------2--5--10-10-10-10-10-10---10----10-10-10----------
-5-5--5-----------------------------------------------------
------------------------------------------------------------

                          D    (--Trem--)
---7---7---7---7---7---7-------5-5-5-5-5---5---5-5-5--------
--12--10--10--10--10--10--9-7--5-5-5-5-5---5---5-5-5--------
------------------------------------------------------------
------------------------------------------------------------

-5--5--5---5-5-5-5-5--7--8-8-8------------------------------
-5--7--5---9-9-9-9-9--9--9-9-9------------------------------
------------------------------------------------------------
------------------------------------------------------------

   (Trem)     G(Trem--)
-7-5-5-5--5----7--7--7--------------------------------------
-9-9-9-9--9---10-10-10---10-5-7-5---------------------------
-----------------------------------8-9--5---5-5-5-----------
------------------------------------------------------------

                  (-----Trem------)
------------------7--7--7--7--7--7----7---------------------
----------5-7-5--10-10-10-10-10-10---10---------------------
-5-5-8/9----------------------------------------------------
------------------------------------------------------------



            
Submit corrections


        Mother's Not Dead She's Only Sleeping (mandolin) lessons Hard to play? Try these video lessons and learn fast Mother's Not Dead She's Only Sleeping (mandolin) lessons
        
↑ Back to top | Tablatures and chords for acoustic guitar and electric guitar, ukulele, drums are parodies/interpretations of the original songs. You may use it for private study, scholarship, research or language learning purposes only