Home » B » Bilderbuch »

Bilderbuch - Mr Refrigerator Tabs

Artists:  A B C D E F G H I J K L M N O P Q R S T U V W X Y Z # 

Mr Refrigerator Tabs

(ver. 1) Click to play this song!
Bilderbuch
[Intro]
 
E|------------------------------------|
B|--11--11-9--------------------------|
G|-----------8-6-8-8-8-10-8-8-6-------|
D|------------------------------8-6-8-|
A|------------------------------------|
E|------------------------------------|
 
E|------------------------------------|
B|--11--11-9--------9-9----9-9----9---|
G|-----------8-6-10-----10-----10-----|
D|------------------------------------|
A|------------------------------------|
E|------------------------------------|
 
Repeat 2 times
 
[Chorus]
 
E|------------------------------------|
B|------------------------------------|
G|------------------------------------|
D|---8-8-6-6--4-4--6-6--8-------------|
A|---8-8-6-6--4-4--6-6--8-------------|
E|---6-6-4-4--2-2--4-4--6-------------|
 
 
[Solo 1st Git coming soon]
[Solo 2nd Git]
 
E|------------------------------------|
B|------------------------------------|
G|------------------------------------|
D|--6--6-6-5-5-8-8--8-6-8-------------|
A|------------------------------------|
E|------------------------------------|
 
E|------------------------------------|
B|------------------------------------|
G|------------------------------------|
D|--6--6-6-5-5-3-3--------------------|
A|------------------------------------|
E|------------------6--4-6------------|
 
Repeat 2 times
 
E|------------------------------------|
B|------------------------------------|
G|------------------------------------|
D|--6--6-6-5-5-10-10--10-8-10---------|
A|------------------------------------|
E|------------------------------------|
 
E|------------------------------------|
B|------------------------------------|
G|------------------------------------|
D|--8--8-8-7-7-5-5--------------------|
A|------------------------------------|
E|------------------8--6-8------------|
 
E|------------------------------------|
B|------------------------------------|
G|------------------------------------|
D|--8--8-8-7-7-15-15--15-13-15--------|
A|------------------------------------|
E|------------------------------------|
 
E|------------------------------------|
B|------------------------------------|
G|------------------------------------|
D|--13--13-13-12-12-10-10-------------|
A|------------------------------------|
E|------------------------13--11-13---|
 
E|------------------------------------|
B|------------------------------------|
G|------------------------------------|
D|--6--6-6-5-5-8-8---6-6-5-5-8--------|
A|------------------------------------|
E|------------------------------------|
 
[Outro]
 
E|---X--X-----X--X--X--X--------------|
B|--11-11----11-11-11-11--------------|
G|---X--X-----X--X--X--X--------------|
D|---X--X-----X--X--X--X--------------|
A|---X--X-----X--X--X--X--------------|
E|---X--X-----X--X--X--X--------------|
            
Submit corrections

↑ Back to top | Tablatures and chords for acoustic guitar and electric guitar, ukulele, drums are parodies/interpretations of the original songs. You may use it for private study, scholarship, research or language learning purposes only