» » »

Bilderbuch - Discokugel Bass

Artists:  A B C D E F G H I J K L M N O P Q R S T U V W X Y Z # 

Discokugel Bass

(ver. 1) Click to play this song!
Bilderbuch
 Rating:
4.3/5 (24 votes)

 Discokugel lessons Tabs too difficult? Try these video lessons and learn fast
 
                [Intro]

G|-----------------|
D|-----------------|
A|-----------------|
E|-4---------------|


[Verse 1]

G|-4---4---4---4---|-4---4---4-2-1---|-4---4---4---4---|-4---4---8---8---|
D|-----------------|-----------------|-----------------|-----------------|
A|-----------------|-----------------|-----------------|-----------------|
E|-----------------|-----------------|-----------------|-----------------|
                                                                            x2
G|-9-9-9-9-9-9-9-9-|-9-9-9-9-9-9-9-9-|-9-9-9-9-9-9-9-9-|-9-9-9-9---9-8-6-|
D|-----------------|-----------------|-----------------|-----------------|
A|-----------------|-----------------|-----------------|-----------------|
E|-----------------|-----------------|-----------------|-----------------|


[Verse 2]

G|-----------------|-----------------|-----------------|-----------------|
D|-----------------|-----------------|-2-2-2-2-2-2-2-2-|-2-2-2-2-2-2-2-2-|
A|-----------------|-----------------|-----------------|-----------------|  x2
E|-4---4---4---4---|-5---5---5---5---|-----------------|-----------------|


[Pre Chorus]
N.C.


[Chorus]

G|-----------------|-----------------|-----------------|-----------------|
D|-----------------|-----------------|-----------------|-----------------|
A|-4---4-4-4-4-6-7-|-----------------|-----------------|-7---7---6---6---|  x2
E|-----------------|---4-4-4-4-4-4-4-|-5---5-5-5-5-5-5-|-----------------|


[Interludio]

G|-----------------|
D|-----------------|
A|-----------------|
E|-4---------------|


[Verse 1]

G|-4---4---4---4---|-4---4---4-2-1---|-4---4---4---4---|-4---4---8---8---|
D|-----------------|-----------------|-----------------|-----------------|
A|-----------------|-----------------|-----------------|-----------------|
E|-----------------|-----------------|-----------------|-----------------|
                                                                            x2
G|-9-9-9-9-9-9-9-9-|-9-9-9-9-9-9-9-9-|-9-9-9-9-9-9-9-9-|-9-9-9-9---9-8-6-|
D|-----------------|-----------------|-----------------|-----------------|
A|-----------------|-----------------|-----------------|-----------------|
E|-----------------|-----------------|-----------------|-----------------|


[Verse 2]

G|-----------------|-----------------|-----------------|-----------------|
D|-----------------|-----------------|-2-2-2-2-2-2-2-2-|-2-2-2-2-2-2-2-2-|
A|-----------------|-----------------|-----------------|-----------------|  x2
E|-4---4---4---4---|-5---5---5---5---|-----------------|-----------------|


[Chorus]

G|-----------------|-----------------|-----------------|-----------------|
D|-----------------|-----------------|-----------------|-----------------|
A|-4---4-4-4-4-6-7-|-----------------|-----------------|-7---7---6---6---|  x2
E|-----------------|---4-4-4-4-4-4-4-|-5---5-5-5-5-5-5-|-----------------|


[Pre Verse 3]

G|-----------------|-----------------|-----------------|-----------------|
D|-----------------|-----------------|-----------------|-----------------|
A|-----------------|-----------------|-----------------|-----------------|
E|-----------------|-----------------|-----------------|-4-4-4---4-4-4---|


[Verse 3]

G|-----------------|-----------------|-----------------|-----------------|
D|-2-2-2-2-2-2-2-2-|-2-2-2-2-2-2-2-2-|-----------------|-----------------|
A|-----------------|-----------------|-4-4-4-4-4-4-4-4-|-4-4-4-4-4-4-4-4-|
E|-----------------|-----------------|-----------------|-----------------|

G|-----------------|-----------------|-----------------|-----------------|
D|-----------------|-----------------|-----------------|-----------------|
A|-----------------|-----------------|-----------------|-----------------|
E|-4-4-4-4-4-4-4-4-|-4-4-4-4-0---0---|-0-0-0-0-0-0-0-0-|-0-0-0-0-0-0-0-0-|

G|-----------------|-----------------|-----------------|-----------------|
D|-----------------|-----------------|-----------------|-----------------|
A|-4-4-4-4-4-4-4-4-|-4-4-4-4-4-4-4-4-|-----------------|-----------------|
E|-----------------|-----------------|-4-4-4-4-4-4-4-4-|-4-4-4-4-4-4-4-4-|

G|-----------------|-----------------|
D|-----------------|-----------------|
A|-0---0---0---0---|-0---0---0---0---|
E|-----------------|-----------------|


[Verse 3 Part 2]

G|-----------------|-----------------|-----------------|-----------------|
D|-2---2---2---2---|-2---2---2---2---|-2---2---2---2---|-2---2---2---2---|
A|-----------------|-----------------|-----------------|-----------------|  x2
E|-----------------|-----------------|-----------------|-----------------|


G|-----------------|-----------------|
D|-----2-2-----2-2-|-----2-2---2-2-2-|
A|-----------------|-----------------|  x8
E|-----------------|-----------------|


[Verse 3 Part 3]

G|-----------------|-----------------|
D|-----------------|-----------------|
A|-7-7-7-7-7-7-7-7-|-7-7-7-7-7-0-4-5-|  x3
E|-----------------|-----------------|

G|-----------------|-----------------|-----------------|
D|-----------------|-----------------|-----------------|
A|-7-7-7-7-7-7-7-7-|-7-7-7-7-7-7-7-7-|-7---------------|
E|-----------------|-----------------|-----------------|
            
Submit corrections


        Discokugel lessons Hard to play? Try these video lessons and learn fast Discokugel lessons
        
↑ Back to top | Tablatures and chords for acoustic guitar and electric guitar, ukulele, drums are parodies/interpretations of the original songs. You may use it for private study, scholarship, research or language learning purposes only