Home » B » Bikini Kill »

Bikini Kill - Rebel Girl Tabs

Artists:  A B C D E F G H I J K L M N O P Q R S T U V W X Y Z # 

Rebel Girl Tabs

(ver. 3) Click to play this song!
Bikini Kill
Tuning: Standard

Distortion

Intro
    |----------- P.M. ----------| 
e|--------------------------------|
B|--------------------------------|
G|--------------------------------|
D|--8-8-8-8-8-8-8-8-8-8-8-8-6-6-7-|
A|--8-8-8-8-8-8-8-8-8-8-8-8-6-6-7-|
E|--6-6-6-6-6-6-6-6-6-6-6-6-4-4-5-| x4


Verse

  That girl thinks she's the queen of the neighborhood...
    |----------- P.M. ----------| 
e|---------------------------------|
B|---------------------------------|
G|---------------------------------|
D|--8-8-8-8-8-8-8-8-8-8-8-8-6-6-7--|
A|--8-8-8-8-8-8-8-8-8-8-8-8-6-6-7--|
E|--6-6-6-6-6-6-6-6-6-6-6-6-4-4-5--| x4


Chorus is exactly the same, just I think more volume and no palm mute.
    
  Rebel Giiirl, Rebel Giiiirl....
e|---------------------------------|
B|---------------------------------|
G|---------------------------------|
D|--8-8-8-8-8-8-8-8-8-8-8-8-6-6-7--|
A|--8-8-8-8-8-8-8-8-8-8-8-8-6-6-7--|
E|--6-6-6-6-6-6-6-6-6-6-6-6-4-4-5--| x4  

Interlude
  Both at first two compasses

Guitars 1 
e|-------------------------------|------------------------------|
B|-------------------------------|------------------------------|
G|-------6----6-6-------6-8-8--6-|------6----6-6-------6-8-8--6-|
D|--8-8--6--8-6-6--8-8--6-8-8--6-|-8-8--6--8-6-6--8-8--6-8-8--6-|
A|--8-8--4--8-4-4--8-8--4-6-6--4-|-8-8--4--8-4-4--8-8--4-6-6--4-|
E|--6-6-----6------6-6-----------|-6-6-----6------6-6-----------|

 Guitar 2
    |----------- P.M. ----------|    |----------- P.M. ----------| 
e|--------------------------------|--------------------------------|
B|--------------------------------|--------------------------------|
G|--------------------------------|--------------------------------|
D|--8-8-8-8-8-8-8-8-8-8-8-8-6-6-7-|--8-8-8-8-8-8-8-8-8-8-8-8-6-6-7-|
A|--8-8-8-8-8-8-8-8-8-8-8-8-6-6-7-|--8-8-8-8-8-8-8-8-8-8-8-8-6-6-7-|
E|--6-6-6-6-6-6-6-6-6-6-6-6-4-4-5-|--6-6-6-6-6-6-6-6-6-6-6-6-4-4-5-|

 And then the other 2 compasses
 Guitar 1
e|-------------------------------------|--------------------------------|
B|-------------------------------------|--------------------------------|
G|-------------------------------7-----|--------------------------------|
D|--6b--6\8-8-6\8-8-6\8-8-6\8-8----8-6-|-6\8-8-6\8-8-6\8-8-9b-----------|
A|-------------------------------------|--------------------------------|
E|-------------------------------------|--------------------------------|

 Guitar 2
    |----------- P.M. ----------|    |----------- P.M. ----------| 
e|--------------------------------|--------------------------------|
B|--------------------------------|--------------------------------|
G|--------------------------------|--------------------------------|
D|--8-8-8-8-8-8-8-8-8-8-8-8-6-6-7-|--8-8-8-8-8-8-8-8-8-8-8-8-6-6-7-|
A|--8-8-8-8-8-8-8-8-8-8-8-8-6-6-7-|--8-8-8-8-8-8-8-8-8-8-8-8-6-6-7-|
E|--6-6-6-6-6-6-6-6-6-6-6-6-4-4-5-|--6-6-6-6-6-6-6-6-6-6-6-6-4-4-5-|


Verse 2 y and chorus 2 is exactly the same. 
So let's skip to 
Interlude 2.

Guitar 2
e|----------------------------|----------------------|----------------------|----------------------|
B|----------------------------|----------------------|----------------------|----------------------|
G|------6---6-6--6------------|-6---6-6--6-----------|-6---6-6--6-----------|-6---6-6--6-----------|
D|--6---6---6-6--6---6-6-7-8--|-6---6-6--6---6-6-7---|-6---6-6--6---6-6-7-8-|-6---6-6--6---6-6-7---|
A|--6---4---4-4--4---6-6-7-8--|-4---4-4--4---6-6-7---|-4---4-4--4---6-6-7-8-|-4---4-4--4---6-6-7---|
E|--4----------------4-4-5-6--|--------------4-4-5---|--------------4-4-5-6-|--------------4-4-5---|

Guitar 1 (what I hear is that it plays diferent notes than the first interlute, 
but I can't recognize them. Sorry, so just play the same notes as interlude 1)

e|-------------------------------------|--------------------------------|
B|-------------------------------------|--------------------------------|
G|-------------------------------7-----|--------------------------------|
D|--6b--6\8-8-6\8-8-6\8-8-6\8-8----8-6-|-6\8-8-6\8-8-6\8-8-9b-----------|
A|-------------------------------------|--------------------------------|
E|-------------------------------------|--------------------------------|

The end
 ... your best friend, be my revolotiooooon

Guitar 2
e|----------------------|
B|----------------------|
G|----------------------|
D|--6-6-6--6--6---------|
A|--6-6-6--6--6---------| (fades)
E|--4-4-4--4--4---------| 

Guitar 1
e|-----------------------|
B|-----------------------|
G|--------------6\8--7---|
D|-----------------------|
A|-----------------------|

            
Submit corrections

↑ Back to top | Tablatures and chords for acoustic guitar and electric guitar, ukulele, drums are parodies/interpretations of the original songs. You may use it for private study, scholarship, research or language learning purposes only