Home » B » Bijelo Dugme »

Bijelo Dugme - Ipak, Pozelim Neko Pismo Tabs

Artists:  A B C D E F G H I J K L M N O P Q R S T U V W X Y Z # 

Ipak, Pozelim Neko Pismo Tabs

(ver. 1) Click to play this song!
Bijelo Dugme
 Rating:
4/5 (4 votes)
                


Tuning:Intro

Play intro using chords

It’s going like this:Am,F,G

Follow the text and play chords

When solo start’s play it like this…

Part 1(begining of solo)

e|-20-19-17-----8/10-12-13-10-12-8/10-12-13-10-12--------|
B|----------18------------------------------------12-10--|
G|-------------------------------------------------------|
D|-------------------------------------------------------|
A|-------------------------------------------------------|
E|-------------------------------------------------------|

Part2 (middle of solo)

e|-19-17-19-17-19/20-19-19/20-17-----8/10-12-13-10-12---10------------------------------|
B|-------------------------------18-------------------13--12-13-10-12-9-9h10p9----------|
G|-----------------------------------------------------------------------------10-10-10-|
D|--------------------------------------------------------------------------------------|
A|--------------------------------------------------------------------------------------|
E|--------------------------------------------------------------------------------------|

Part 3 (end of solo)

e|-19-20-------------15/17-17--|
B|-------20-20-20-19-----------|
G|-----------------------------|
D|-----------------------------|
A|-----------------------------|
E|-----------------------------|

Then again play using chords…

Am,F,G…

Whole song is playing using just this two chords

I will help you to take a rytham…

It’s goes like this

Am                           F                                    G
Nisam te izgleda volio mnogo, sve je po starom al vise nisam tvoj 
Am                          F                          G
I nije mi vazno skime nocas,slusas ovu pjesmu places li  

You play whole song like this

Trust me it’s very easy.


| /  slide up
| h  hammer-on
| p  pull-off

Thank you.

Enjoy!
            
Submit corrections

↑ Back to top | Tablatures and chords for acoustic guitar and electric guitar, ukulele, drums are parodies/interpretations of the original songs. You may use it for private study, scholarship, research or language learning purposes only