Home » B » Bijelo Dugme »

Bijelo Dugme - Ima Neka Tajna Veza Tabs

Artists:  A B C D E F G H I J K L M N O P Q R S T U V W X Y Z # 

Ima Neka Tajna Veza Tabs

(ver. 2) Click to play this song!
Bijelo Dugme
 Rating:
4/5 (4 votes)
                intro:					
                            				  
 E|-----3p0--7--5h7p5--3p0-----------0h2p0----1---2---0---
 H|-----0-------------------1--0-----1--------0---4---0---
 G|-----0----------------------------2--------1---2---0---
 D|-------------0---------------------------------4---2---
 A|--------------------3----0---------------------2---2---
 E|--0-------------------------3----------------------0---


 E|-------------3p0--7-5h7p5--3p0---------0h2p0--2--2---0---
 H|-------------0------------------1--0---1------2--4---0---
 G|-------------0-------------------------2------2--2---0---
 D|---------------------0------------------------4--4---2---
 A|----2s5-4------------------3----0-------------2------2---
 E|--0-------0------------------------3-----------------0---


 E|-----------|12|------||
 H|-----------|12|------||
 G|-----------|12|------||
 D|---------------------||
 A|----2s(10)-----------||
 E|--0------------------||


strofa:

 E|-----0-----0----------0-------0----0----1----------------
 H|----0-----0----------1-------1----1----0------1----------
 G|---0-----0----------0-------0----2----0------------------
 D|--2-----1------------------------------------2-----------
 A|---------------0-2-3-------2----0-----------1------------
 E|-------------------------------------3-----2-------------

 1.Ima....tajna       za sve ljude za---kon   krut	 
 2.sidro..ladju       da ne  bude  bu---ri    plijen 

 E|-----------------------|-----0-----0--------2---2----0----
 H|------5---4-----8---7--|----1-----1--------1-1-1----0-0-0-
 G|--3s5---5---5s8---8----|---2-----0--------2---2----0---0--
 D|-----------------------|-----------------1----------------
 A|-----------------------|-0------3-------------------------
 E|-----------------------|--------------------------0-------

                         1. Njome  covjek...veze      kada..
                         2. Tone   skupa....ladjom    jer je.. 
 E|-------2---2----2---2--|
 H|------2-2-2----0-0-0---|
 G|-----3---3----2---2----|
 D|-----------------------|
 A|------------2----------|
 E|--2--------------------|

  1.  sebi      put.  
  2.  dio       nje.	


refren:
							
 E|------------------------------------------------------------
 H|---------------------1---3------3--1------------------------
 G|---------------------2---4------4--2------------------------
 D|---------------------2---4------4--2------------------------
 A|-2h3-2--------0---------------------------------------------
 E|-------3-2-0------------------------------------------------
		 Ima  neka  tajna  ve-za    [Em]tajna veza za sve nas..

 E|----------------------------------3---3-----2---2-----
 H|---------1-----3------3-1--------2-2-2-----1-1-1------
 G|---------2-----4------4-1-------3---3-----2---2-------
 D|---------2-----4------4-2------2---------1------------
 A|------0-----------------------------------------------
 E|--0-2-------------------------------------------------
                         ve-za   tajna veza za sve     [Em]nas..itd..
            
Submit corrections

↑ Back to top | Tablatures and chords for acoustic guitar and electric guitar, ukulele, drums are parodies/interpretations of the original songs. You may use it for private study, scholarship, research or language learning purposes only