Home » B » Bijelo Dugme »

Bijelo Dugme - Goodbye Amerika Tabs

Artists:  A B C D E F G H I J K L M N O P Q R S T U V W X Y Z # 

Goodbye Amerika Tabs

(ver. 1) Click to play this song!
Bijelo Dugme
 Rating:
4/5 (4 votes)
                Uvod
E--------8b-------8b-8b-7b-\--|
H--------8b-------8b-8b-7b-\--|
G-----------------------------|  3x
D-----------------------------|
A-----------------------------|
E--3-4-5----3-4-5-------------|

E-----------|
H-----------|
G-----------|
D-----------|
A--7--5--3--|
E--5--3--1--|

Solo
E—-7h8p7---------------8-8h10----8p5----7-8-10------------------|
H-----------7h8p7----7------------------------------------------|
G-------------------------------------------------9b\7-5-4-5/7--|
D---------------------------------------------------------------|
A---------------------------------------------------------------|
E---------------------------------------------------------------|

E--------------------------------------------|
H--------------------------------------------|
G—-9h10p9----x-x-12b-12b-12b-12b-------------|
D-------------------------------13-12-13/15--|
A--------------------------------------------|
E--------------------------------------------|

E—-12p10--------------10----------------------|
H-------13-13---12h13----13-12-13\12-x-10-10--|
G---------------------------------------------|
D---------------------------------------------|
A---------------------------------------------|
E---------------------------------------------|

E—-12\10--------10/12-10----------|
H-------13-12-13--------13-12-10--|
G---------------------------------|
D---------------------------------|
A---------------------------------|
E---------------------------------|

E—-13b--\12-10--------------------------------|
H-------------13-10------5--------------------|
G--------------------------7-5-4---5-4-5-7----|
D----------------------7---------7---------7--|
A---------------------------------------------|
E---------------------------------------------|

E---------7-8-10-8--8-7-----------|
H—-8h9h10--------------10-8-8/10--|
G---------------------------------|
D---------------------------------|
A---------------------------------|
E---------------------------------|
            
Submit corrections

↑ Back to top | Tablatures and chords for acoustic guitar and electric guitar, ukulele, drums are parodies/interpretations of the original songs. You may use it for private study, scholarship, research or language learning purposes only