» » »

Bijelo Dugme - Blues Za Moju Bivsu Dragu Tabs

Artists:  A B C D E F G H I J K L M N O P Q R S T U V W X Y Z # 

Blues Za Moju Bivsu Dragu Tabs

(ver. 2) Click to play this song!
Bijelo Dugme
 Rating:
4/5 (4 votes)

 Blues Za Moju Bivsu Dragu lessons Tabs too difficult? Try these video lessons and learn fast
 
                Par napomena: 
 Pjesma je u G-molu sto ce te vjerovatno i sami skontati. Tab nije original 
 al' je neka vrsta moje improvizacije koja vecim djelom prilicno dobro zvuci
 (meni..barem). Kao sto je to Aca u jednoj od svojih traskripcija spomenuo, 
 mislim da moze da posluzi kao dobra osnova. Prije svega odsvirajte je i 
 uvjerite se sami.
 
 Dva mjesta iznad taba su oznacena sa X i Y:
 X: nisam im'o pojma kako ovo da napisem, nadam se da cete skontati kad 
    cujete pjesmu.
 Y: ..je vise stvar improvizacije jer mislim da ni Brega sam ne zna sta je tu
      odsvirao :)
      eto..ako vam nesto nije jasno...slobodno pitajte...
      
 

 Uvod:                    				  
                                                    (---------X--------------) 
 E|---------3----------------------------------------------------------5b6-3--
 H|-------3----6-------------------------------------6b8-8-8--8-8r6b8---------
 G|---5b7---------3p2~----5b6-5-3-----------5-3-----x-------------------------
 D|-------------------------------5--3--------------x------------------------- 
 A|------------------------------------5--3-----------------------------------
 E|---------------------------------------------------------------------------

 E|-----8b10-8--6-------------8b10-8--6------------------------------
 H|---------------8-6-8-----------------8---6-8----------------------
 G|---------------------7-5---------------7------7-5--7-5--5b7r5~----
 D|------------------------------------------------------------------ 
 A|------------------------------------------------------------------
 E|------------------------------------------------------------------

 E|--------------------------------------------------------------------------
 H|-----------------------------13b15-13-11----------------------------------
 G|---3-2-3-5-3-2-3-2------------------------12-12~--------------------------
 D|-------------------3------------------------------------------------------ 
 A|--------------------------------------------------------------------------
 E|--------------------------------------------------------------------------

      (--------------------------Y-----------------------------) 
 E|--------------------------------------------------------------------------
 H|--------------------------------------------------------------------------
 G|---5b6r5-3-5-3---------------------5b6r5-3-5-3-------3--------------------
 D|---------------5-3--5-3------------------------5-3-----5-5~---------------
 A|------------------5----5-3p5-3---------------------5---------------------- 
 E|-------------------------------6------------------------------------------
 
 E|---------3-6-3---------13b15----------------------------------------------
 H|-------3-------6-6b8-----------13b15-13-11----11--13b15-13-11----11-------
 G|----5b7------------------------------------12-----------------12---12~----
 D|-------------------------------------------------------------------------- 
 A|--------------------------------------------------------------------------
 E|--------------------------------------------------------------------------

 E|-----------------------------||
 H|-----------------------------||
 G|---5b5r5-3-5-3---------------||
 D|---------------5-3-----------||
 A|-------------------5--3------||
 E|-------------------------3---||

 
 Objasnjenje: 
 -------------------

  b-bend
  r-release
  ~-vibrato
  x- priguseno

  ----------------------
            
Submit corrections


        Blues Za Moju Bivsu Dragu lessons Hard to play? Try these video lessons and learn fast Blues Za Moju Bivsu Dragu lessons
        
↑ Back to top | Tablatures and chords for acoustic guitar and electric guitar, ukulele, drums are parodies/interpretations of the original songs. You may use it for private study, scholarship, research or language learning purposes only