Home » B » Big Wreck »

Big Wreck - Hey Mama Tabs

Artists:  A B C D E F G H I J K L M N O P Q R S T U V W X Y Z # 

Hey Mama Tabs

(ver. 1) Click to play this song!
Big Wreck
 Rating:
4/5 (4 votes)
                Tuning: DADGAD down a 1/2 step. C#G#C#F#G#C#

Strumming pattern is easy to figure out. I'll tab in parts. 


Part 1

e|-0-0-0-0--0-0-0-0-0--0-0-0-0-0--0-0-0-0-3bp--0-0-0-0-0--0-0-0-0-0--0-0-0-0-0--0-0-0-0-0-0----------|
B|-0-0-0-0--0-0-0-0-0--0-0-0-0-0--0-0-0-0-0----0-0-0-0-0--0-0-0-0-0--0-0-0-0-0--0-0-0-0-3bp0---------|
G|-1/2-2-2--1/2-2-2-2--1/2-2-2-2--1/2-2-2-2----1/2-2-2-2--1/2-2-2-2--1/2-2-2-2--1/2-2-2-2-0----------|
D|---------------------------------------------------------------------------------------------------|
A|---------------------------------------------------------------------------------------------------|
E|---------------------------------------------------------------------------------------------------|

Theres a part in the third verse that ends with:

e|-----------------------------------------------|
B|-----------------------------------------------|
G|---3-2-0---------------------------------------|
D|----------3-2-0--------------------------------|
A|-----------------------------------------------|
E|-----------------------------------------------|


Part 2

e|--------------------------0-0-0-0-0--0-0-0-0-0-----------------------------------------------------|
B|-2b-2b-2b---2b-2b-2b-2b---0-0-0-0-0--0-0-0-0-0-----2b-2b-2b---2b-2b-2b-2b--------------------------|
G|-5--5--5----4--4--4--4----1/2-2-2-2--1/2-2-2-2-----5--5--5----4--4--4--4---------------------------|
D|-------------------------------------------------------------------------------5--3-3--------------|
A|-------------------------------------------------------------------------------5--3-3--------------|
E|-------------------------------------------------------------------------------5--3-3--------------|

Part 3

e|---------------------------------------------------------------------------------------------------|
B|----------------------------3/5-5-5/8---1--2--5----3/5-5-5/8---1--2--5-----------------------------|
G|--7-7-7-7-7-7-7-7-7-7-7----------------------------------------------------------------------------|
D|--5-5-5-5-5-5-5-5-5-5-5----------------------------------------------------------------------------|
A|--5-5-5-5-5-5-5-5-5-5-5-----3/5-5-5/8---1--2--5----3/5-5-5/8---1--2--5-----------------------------|
E|--5-5-5-5-5-5-5-5-5-5-5----------------------------------------------------------------------------|


Part 4

e|---------------------------------------------------------------------------------------------------|
B|---------------------------------------------------------------------------------------------------|
G|---------------------------------------------------------------------------------------------------|
D|--0-2-3--0h2p0-------------------------------------------------------------------------------------|
A|----------------5-5p3------------------------------------------------------------------------------|
E|----------------------5----------------------------------------------------------------------------|


Part 5

e|---0---12-12-12-10-10-10-----0---10-10-10-8-8-8-----0--8-8-8-6-6-6------0--5-5-5-3-5-3-------------|
B|---0---0--0--0--0--0--0------0---0--0--0--0-0-0-----0--0-0-0-0-0-0------0--0-0-0-0-0-0-------------|
G|---0---0--0--0--0--0--0------0---0--0--0--0-0-0-----0--0-0-0-0-0-0------0--0-0-0-0-0-0-------------|
D|---12--12-12-12-10-10-10-----10--10-10-10-8-8-8-----8--8-8-8-6-6-6------5--5-5-5-3-5-3-------------|
A|---------------------------------------------------------------------------------------------------|
E|-0-------------------------0----------------------0------------------0-----------------------------|


Solo

e|---------------------------------------------------------------------------------------------------|
B|--12h14-12\10--12h14-12\10--12h14-12\10--12p9-12p9-12-7-9----12p9-12p9-12-7-9----------------------|
G|----------------------------------------------------------7-------------------7--------------------|
D|---------------------------------------------------------------------------------------------------|
A|---------------------------------------------------------------------------------------------------|
E|---------------------------------------------------------------------------------------------------|

e|---------------------------------------------------------------------------------------------------|
B|--12h14-12\10--12h14-12\10--12h14-12\10--12p9-12p9-12-7-9----12p9-12p9-12-7-9-9b-------------------|
G|----------------------------------------------------------7----------------------------------------|
D|---------------------------------------------------------------------------------------------------|
A|---------------------------------------------------------------------------------------------------|
E|---------------------------------------------------------------------------------------------------|


Outro

e|---0---12-12-12-10-10-10-----0---10-10-10-8-8-8-----0--8-8-8-6-6-6------0--5-5-5-3-5-3-------------|
B|---0---0--0--0--0--0--0------0---0--0--0--0-0-0-----0--0-0-0-0-0-0------0--0-0-0-0-0-0-------------|
G|---0---0--0--0--0--0--0------0---0--0--0--0-0-0-----0--0-0-0-0-0-0------0--0-0-0-0-0-0-------------|
D|---12--12-12-12-10-10-10-----10--10-10-10-8-8-8-----8--8-8-8-6-6-6------5--5-5-5-3-5-3-------------| x2
A|---------------------------------------------------------------------------------------------------| 
E|-0-------------------------0----------------------0------------------0-----------------------------|

e|------0---12-12-12-10-10-10-------0---10-10-10-8-8-8--------0--8-8-8-6-6-6-------0--5-5-5-3-5-3----|
B|------0---0--0--0--0--0--0--------0---0--0--0--0-0-0--------0--0-0-0-0-0-0-------0--0-0-0-0-0-0----|
G|------0---0--0--0--0--0--0--------0---0--0--0--0-0-0--------0--0-0-0-0-0-0-------0--0-0-0-0-0-0----|
D|------12--12-12-12-10-10-10-------10--10-10-10-8-8-8--------8--8-8-8-6-6-6-------5--5-5-5-3-5-3----| x2
A|---------------------------------------------------------------------------------------------------|
E|-3b-0------------------------3b-0---------------------3b-0-----------------3b-0--------------------|


Order:
Part 1 x4
Part 2 x1
Part 1 x4
Part 2 x1
Part 3 x2
Part 4 x2
Part 1 x3
Part 2 x1
Part 3 x2
Part 4 x2
Part 5 x2
Solo   x1
Part 4 x7
Outro

            
Submit corrections

↑ Back to top | Tablatures and chords for acoustic guitar and electric guitar, ukulele, drums are parodies/interpretations of the original songs. You may use it for private study, scholarship, research or language learning purposes only