Home » B » Big Sugar »

Big Sugar - I'm A Ram Tabs

Artists:  A B C D E F G H I J K L M N O P Q R S T U V W X Y Z # 

I'm A Ram Tabs

(ver. 2) Click to play this song!
Big Sugar
I'm A Ram
Big Sugar


tuning: open G

intro
e|----------------------|
B|----------------------|
G|----------------------|
D|------3---------------| x4
G|--5-7-----------------|
D|--------5-5-7-3-0-----|

first part of verse riff
e|---------3-3-3---|
B|--3-3-3--3-3-3---|
G|--2-2-2----------|
D|-----------------| x4
G|-----------------|
D|-----------------|

second part of verse riff
e|--------------3-3-----|
B|--x-3-3--x-x--3-3-----|
G|--x-2-2--x-x----------|
D|----------------------|
G|----------------------|
D|----------------------|

chorus
e|-----------------------|
B|-12-12-12-12-10-7------|
G|-12-12-12-12-10-7------|
D|-12-12-12-12-10-7------|  x4
G|-12-12-12-12-10-7------|
D|-----------------------|

solo
follo first part of verse

this is the sax part for guitar
e|-----------------------|
B|-----------------------|
G|-----------------------|
D|-----------------------|
G|-----------------------|
D|-0-0--5-5-4-5-7--------|

outro
e|----------------------|
B|----------------------|
G|----------------------|
D|------3---------------| x7
G|--5-7-----------------|
D|--------5-5-7-3-0-----|

e|----------------------|
B|----------------------|
G|----------------------|
D|------3---------------| 
G|--5-7-----------------|
D|--------5-5-7-3-------|
            
Submit corrections

↑ Back to top | Tablatures and chords for acoustic guitar and electric guitar, ukulele, drums are parodies/interpretations of the original songs. You may use it for private study, scholarship, research or language learning purposes only