Home » B » Big Mountain »

Big Mountain - Baby I Love Your Way Bass

Artists:  A B C D E F G H I J K L M N O P Q R S T U V W X Y Z # 

Baby I Love Your Way Bass

(ver. 1) Click to play this song!
Big Mountain
1st Stanza 
---------------------------------------------------------------
-2-2--2-2--1-1------------------------------------0-0--0-0--0--  2x
--2----2---------4-4--4-4--4-4--2--0-0--0-0--0-0---0----0------
------------------4----4------------0----0---------------------


Pre-Chorus
----1--1---------1-6--6-4-----------------------1-6-4------------
---1----4-2-1---2---------6-4------4--4-2-1------4---------------
--2------------4----------------0-4--------4-2--------4-2--4-2-2-
-4-----------------------------2---------------------------------


Chorus
---------1-4--------1-2-1-------------1-4----1---1-2-1---
-2-2-2-2---------4-4-----4----2-2-2-2---------4-4-----4--
------------2-------------0--------------2-------------0-
---------------------------------------------------------

---------1-4-4--------1-2-1-----
-2-2-2-2------4----4-4-----4----
----------------2------------0--
--------------------------------

2nd stanza
---------------------------------------------------------------
-2-2--2-2--1-1------------------------------------0-0--0-0--0-- 
--2----2---------4-4--4-4--4-4--2--0-0--0-0--0-0---0----0------
------------------4----4------------0----0---------------------

---------------4------------------------------------------------
-2-2--2-2--1-1------------------------------------0-0--0-0--0-- 
--2----2---------4-4--4-4--4-4--2--0-0--0-0--0-0---0----0------
------------------4----4------------0----0---------------------

Pre-Chorus
----1--1---------1-6--6---------------1-2-1---4----
---1----4-2-1---2-------6-6-4------4-------4-1-----
--2------------4----------------0-4--------------2-
-4-----------------------------2-------------------

Chorus
---------1-4--------1-2-1-------------1-4----1---1-2-1---
-2-2-2-2---------4-4-----4----2-2-2-2---------4-4-----4--
------------2-------------0--------------2-------------0-
---------------------------------------------------------

---------1-4-4--------1-2-1-----
-2-2-2-2------4----4-4-----4----
----------------2------------0--
--------------------------------

"oh baby oh baby please.."
-6-------------------------------------------------------------11-
--------------6-6----------------------------------------------11-
--7--7-7--7-7-------4-4--4-4--4-4-2--0-0--0-0---------------------
------7----7---------4----4-----------0----0---4-4--2-2-2--2-2----

-------------------------------------------------------14-
-------------6-----------------------------------------14-
-----7--7-7---6------4-4--4-4--4-4-2--0-0--0-0------------
-12-7----7-----7-4----4----4-----------0----0--4-4--2-----

"i can see the sunset..." (no bass)


Pre-Chorus
----1--1---------1-6--6---------------1-2-1-------
---1----4-2-1---2-------6-6-4------4-------4-1----
--2------------4----------------0-4---------------
-4-----------------------------2------------------

--------------------------5-
----------------------------
-2-2-2-2-2-2-2-2-2-2-2-3----
----------------------------


Chorus (half step higher)
---------2-5-5------0--0-2-3-2-0-------
-3-3-3-3-------5---------------------0-
-----------------3---------------1--3--
---------------------------------------

---------2-5-5------2-0--0-2-3-2-0-------
-3-3-3-3-------5-------------------------
-----------------3-----------------1--3--
-----------------------------------------

---------2--7--5-------2-0--0-2-3-2-0------
-3-3-3-3-----7---5-------------------------
-------------------3------------------1--1-
-------------------------------------------

----5-5-------7-7----0-0-12-12-0-----------
----------0-0-----0--------------10-8-7-5--
-3-3----3----------------------------------
-------------------------------------------

---------2-5-5------2-0--0-2-3-2-0--------
-3-3-3-3-------5------------------------0-
-----------------3-----------------1--3---
------------------------------------------

---------2--7--5-------2-0--0-2-3-2-0------
-3-3-3-3--------5--------------------------
------------------3------------------1--3--
-------------------------------------------

---10-9-7-7-5----2-0-0-0-2-3-2-0--------
-3-------7-7-5--------------------------
--------------3-------------------1---3-
----------------------------------------

---------2-5-5------2-0--0-2-3-2-0--------
-3-3-3-3-------5------------------------0-
-----------------3-----------------1--3---
------------------------------------------

---------2--7--5----
-3-3-3-3--------5---
--------------------
--------------------

END            
Submit corrections

↑ Back to top | Tablatures and chords for acoustic guitar and electric guitar, ukulele, drums are parodies/interpretations of the original songs. You may use it for private study, scholarship, research or language learning purposes only