Home » B » Big Head Todd And The Monsters »

Big Head Todd And The Monsters - Boom Boom Bass

Artists:  A B C D E F G H I J K L M N O P Q R S T U V W X Y Z # 

Boom Boom Bass

(ver. 1) Click to play this song!
Big Head Todd And The Monsters
INTRO & VERSE

G|----------------|
D|----------------|
A|----------------|
E|REST------------|

PRE-CHORUS (LISTEN FOR THE CUE FROM THE GUITAR!)

G|----------------|----------------|
D|----------------|----------------| (X20)
A|----------------|----2---5-------|
E|REST------------|3-----------3---|


CHORUS (X2 - ON THE SECOND TIME THROUGH, REST THE LAST 3 NOTES
OF THE LAST BAR, THIS FORMS THE 'REST' OF THE NEXT PRE-CHORUS)

G|----------------|----------------|----------------|----------------|
D|------------2---|------------2---|------------2---|------------2---|
A|----2---5-------|----2---5-------|----2---5-------|----2---5-------|
E|3---------------|3---------------|3---------------|3---------------|

G|------------2---|------------2---|----------------|----------------|
D|----2---5-------|----2---5-------|------------2---|------------2---|
A|3---------------|3---------------|----2---5-------|----2---5-------|
E|----------------|----------------|3---------------|3---------------|

G|------------3---|------------2---|----------------|----------------|
D|----3---6-------|----2---5-------|------------2---|------------2---|
A|5---------------|3---------------|----2---5-------|----2---5-------|
E|----------------|----------------|3---------------|3---------------|

PRE-CHORUS (X16)

CHORUS (X2 - ON THE SECOND TIME THROUGH, REST THE LAST 3 NOTES
OF THE LAST BAR, THIS FORMS THE END OF THE SONG.)
            
Submit corrections

↑ Back to top | Tablatures and chords for acoustic guitar and electric guitar, ukulele, drums are parodies/interpretations of the original songs. You may use it for private study, scholarship, research or language learning purposes only