» » »

Big Country - The Long Road Tabs

Artists:  A B C D E F G H I J K L M N O P Q R S T U V W X Y Z # 

The Long Road Tabs

(ver. 1) Click to play this song!
Big Country
 Rating:
4.3/5 (12 votes)

 The Long Road  lessons Tabs too difficult? Try these video lessons and learn fast
 
                [Intro]

e|-------9------------------------------------------------9-------9h12-9-9h12-14-12-9h12p9-----|
B|-10h12---12-10h12p10----10---------------------10-10h12---12-10--------------------------12--|
G|---------------------11----11-9h11p9----9-9h11-----------------------------------------------|
D|-------------------------------------11------------------------------------------------------|
A|---------------------------------------------------------------------------------------------|
E|---------------------------------------------------------------------------------------------|

e|----12-14-16-14h16p14-12-----------------------------------------------------------------------------|
B|-14----------------------14----/12----12-14h15p14-12-----12-14-12-10h12p10----10----------------10~--|
G|----------------------------14-----14-----------------14-------------------11----11-9h11p9----9------|
D|-------------------------------------------------------------------------------------------11--------|
A|-----------------------------------------------------------------------------------------------------|
E|-----------------------------------------------------------------------------------------------------|


[Verse]

F#m 1 2+3+
    d dudu

E   1 2+3+
    d dudu

A   1 2+3+
    d dudu

D  1 2+3+
   d dudu x4

F#m 1 2+3+
    d dudu

E   1 2+3+
    d dudu

A   1 2+3+
    d dudu

D  1 2+3+
   d dudu x4

Bm  1 2+3+
    d dudu

F#m 1 2+3+
    d dudu

E   1 2+3+
    d dudu

D  1 2+3+
   d dudu x4

F#m 1 2+3+
    d dudu

E   1 2+3+
    d dudu

Bm  1 2+3+
    d dudu

E   1 2+3+
    d dudu x2

D  1 2+3+
   d dudu x2


[Chorus 1]

e|----12-14~--12----12~--------------------12-14~--12----12~------------|
B|-14------------14-----12h14-12--------14------------14-----12h14-14~--|
G|-------------------------------14~------------------------------------|
D|----------------------------------------------------------------------|
A|----------------------------------------------------------------------|
E|----------------------------------------------------------------------|

e|----12-14~--12----12~--------------------------------------------------------------------|
B|-14------------14--------12-12h14-12---------------------14-12h14p12---------------------|
G|----------------------14-------------14-11~-----11-14-14-------------14-13----\11~--11~--|
D|---------------------------------------------14----------------------------14------------|
A|-----------------------------------------------------------------------------------------|
E|-----------------------------------------------------------------------------------------|

e|--------------------------------------|
B|-------------14-12h14p12--------------|
G|----11-14-14-------------14-11-14~\---|
D|-14-----------------------------------|
A|--------------------------------------|
E|--------------------------------------|


[Verse 2] same as [Verse]



[Chorus 2]

e|----12-14~--12----12~--------------------12-14~--12----12~------------|
B|-14------------14-----12h14-12--------14------------14-----12h14-14~--|
G|-------------------------------14~------------------------------------|
D|----------------------------------------------------------------------|
A|----------------------------------------------------------------------|
E|----------------------------------------------------------------------|

e|----12-14~--12----12~------------------------------------------------------------|
B|-14------------14--------12-12h14-12---------------------14-12h14p12-------------|
G|----------------------14-------------14-11~-----11-14-14-------------14----\11~--|
D|---------------------------------------------14-------------------------14-------|
A|---------------------------------------------------------------------------------|
E|---------------------------------------------------------------------------------|

e|--------------------------------------|
B|-------------14-12h14p12--------------|
G|----11-14-14-------------14-11-14~----|
D|-14-----------------------------------|
A|--------------------------------------|
E|--------------------------------------|

e|----12-14~--12----12~--------------------12-14~--12----12~------------|
B|-14------------14-----12h14-12--------14------------14-----12h14-14~--|
G|-------------------------------14~------------------------------------|
D|----------------------------------------------------------------------|
A|----------------------------------------------------------------------|
E|----------------------------------------------------------------------|

e|----12-14~--12----12~------------------------------------------------------------|
B|-14------------14--------12-12h14-12---------------------14-12h14p12-------------|
G|----------------------14-------------14-11~-----11-14-14-------------14----\11~--|
D|---------------------------------------------14-------------------------14-------|
A|---------------------------------------------------------------------------------|
E|---------------------------------------------------------------------------------|

e|--------------------------------------|
B|-------------14-12h14p12--------------|
G|----11-14-14-------------14-11-14~----|
D|-14-----------------------------------|
A|--------------------------------------|
E|--------------------------------------|


[Bridge]

E   1 2+3+
    d dudu x2

D   1 2+3+
    d dudu x2

F#m 1 2+3+
    d dudu x2

Bm  1 2+3+
    d dudu x2

D   1 2+3+
    d dudu x2

F#m 1 2+3+
    d dudu x2

E   1 2+3+
    d dudu x2

D   1 2+3+
    d  


[Intro]

e|-------9------------------------------------------------9-------9h12-9-9h12-14-12-9h12p9-----|
B|-10h12---12-10h12p10----10---------------------10-10h12---12-10--------------------------12--|
G|---------------------11----11-9h11p9----9-9h11-----------------------------------------------|
D|-------------------------------------11------------------------------------------------------|
A|---------------------------------------------------------------------------------------------|
E|---------------------------------------------------------------------------------------------|

e|----12-14-16-14h16p14-12-----------------------------------------------------------------------------|
B|-14----------------------14----/12----12-14h15p14-12-----12-14-12-10h12p10----10----------------10~--|
G|----------------------------14-----14-----------------14-------------------11----11-9h11p9----9------|
D|-------------------------------------------------------------------------------------------11--------|
A|-----------------------------------------------------------------------------------------------------|
E|-----------------------------------------------------------------------------------------------------|

[Verse 3] same as [Verse]


[Chorus 3] same as [Chorus 2]


[Outro]


e|----12-14~--12----12~--------------------12-14~--12----12~------------|
B|-14------------14-----12h14-12--------14------------14-----12h14-14~--|
G|-------------------------------14~------------------------------------|
D|----------------------------------------------------------------------|
A|----------------------------------------------------------------------|
E|----------------------------------------------------------------------|

e|----12-14~--12----12~------------------------------------------------------------|
B|-14------------14--------12-12h14-12---------------------14-12h14p12-------------|
G|----------------------14-------------14-11~-----11-14-14-------------14----\11~--|
D|---------------------------------------------14-------------------------14-------|
A|---------------------------------------------------------------------------------|
E|---------------------------------------------------------------------------------|

e|--------------------------------------|
B|-------------14-12h14p12--------------|
G|----11-14-14-------------14-11-14~----|
D|-14-----------------------------------|
A|--------------------------------------|
E|--------------------------------------|
            
Submit corrections


        The Long Road  lessons Hard to play? Try these video lessons and learn fast The Long Road  lessons
        
↑ Back to top | Tablatures and chords for acoustic guitar and electric guitar, ukulele, drums are parodies/interpretations of the original songs. You may use it for private study, scholarship, research or language learning purposes only