Home » B » Big Country »

Big Country - The Journey Tabs

Artists:  A B C D E F G H I J K L M N O P Q R S T U V W X Y Z # 

The Journey Tabs

(ver. 1) Click to play this song!
Big Country
[Intro]

Guitar 1
e|---------------------------------------------------------------------------|
B|---------------------------------------------------------------------------|
G|-8-8-10-8-10/12\10-8-8-10-8-10/12\10-8-8-10-8-10/12\10-8-8-10-8-8-10-8-----|
D|---------------------------------------------------------------------------|
A|---------------------------------------------------------------------------|
E|---------------------------------------------------------------------------|

e|---------------------------------------------------------------------------|
B|---------------------------------------------------------------------------|
G|-8-8-10-8-10/12\10-8-8-10-8-10/12\10-8-8-10-8-10/12\10-8-8-10-8~~----------|
D|---------------------------------------------------------------------------|
A|---------------------------------------------------------------------------|
E|---------------------------------------------------------------------------|

Guitar 2 comes in on repeat of guitar 1:
e|-------------------------------------------------------|
B|-----------8h11p8---11/13p11---------------8h11p8--4~--|
G|------8-10-------------------12-------8-10-------------|
D|-8h10---------------------------8h10-------------------|
A|-------------------------------------------------------|
E|-------------------------------------------------------|

e|---------------------|
B|---------------------|
G|-8~---8~---8~---8~---|
D|-8~---8~---8~---8~---|
A|-6~---6~---6~---6~---|
E|---------------------|


[Verse]

e|------------------------------------------------------------|
B|------------------------------------------------------------|
G|--------5-5-5~-3-3-3~-5-5-5~--------5-5-5~-3-3-3~-8-8-8\----|
D|-6-6-6~-5-5-5~-3-3-3~-5-5-5~-6-6-6~-5-5-5~-3-3-3~-8-8-8\----|
A|-6-6-6~-3-3-3~-1-1-1~-3-3-3~-6-6-6~-3-3-3~-1-1-1~-6-6-6\----|
E|-4-4-4~----------------------4-4-4~-------------------------|

e|-------------------------------------------|
B|-------------------11-11b-11b-11-----------|
G|------8-10-8-10/12----12b-12b-12p10-8~-----|
D|-8h10--------------------------------------|
A|-------------------------------------------|
E|-------------------------------------------|

e|-----------------------------------------------------------|
B|-----------------------------------------------------------|
G|--------5-5-5~-3-3-3~-5-5-5~--------5-5-5~-3-3-3~-8-8-8----|
D|-6-6-6~-5-5-5~-3-3-3~-5-5-5~-6-6-6~-5-5-5~-3-3-3~-8-8-8----|
A|-6-6-6~-3-3-3~-1-1-1~-3-3-3~-6-6-6~-3-3-3~-1-1-1~-6-6-6----|
E|-4-4-4~----------------------4-4-4~------------------------|


[Pre-Chorus]

e|--------------------------------------------|
B|--------------------------------------------|
G|----------------8~--8-7---------------------|
D|-8~---10~--6~---8~--8-7-10~--6~---8~---8~---|
A|-8~---10~--6~---6~--6-5-10~--6~---8~---8~---|
E|-6~---8~---4~-----------8~---4~---6~---6~---|


[Chorus]

e|--------------------------------------------------------------|
B|--------------------------------------------------------------|
G|--------------5-5-5-5-5-5-5-5-8-8-8-8-8-8-8-8-----------------|
D|-6-6-6-6-6-6--5-5-5-5-5-5-5-5-8-8-8-8-8-8-8-8-8-8-8-8-8-8-8-8-|
A|-6-6-6-6-6-6--3-3-3-3-3-3-3-3-6-6-6-6-6-6-6-6-8-8-8-8-8-8-8-8-|
E|-4-4-4-4-4-4----------------------------------6-6-6-6-6-6-6-6-|

e|--------------------------------------------------------------------------------------------|
B|--------------------------------------------------------------------------------------------|
G|--------------------------------------------------------------------------------------------|
D|-10-10-10-10-10-10-10-10-6-6-6-6-6-6-6-6-3-3-3-3-3-3-3-3-3-3-3-3-5-5-5-5-6-6-6-6-6-6-6-6-6~-|
A|-10-10-10-10-10-10-10-10-6-6-6-6-6-6-6-6-3-3-3-3-3-3-3-3-3-3-3-3-5-5-5-5-6-6-6-6-6-6-6-6-6~-|
E|-8--8--8--8--8--8--8--8--4-4-4-4-4-4-4-4-1-1-1-1-1-1-1-1-1-1-1-1-3-3-3-3-4-4-4-4-4-4-4-4-4~-|


[Interlude]

e|---------------------------------------------------------------------------|
B|---------------------------------------------------------------------------|
G|-8-8-10-8-10/12\10-8-8-10-8-10/12\10-8-8-10-8-10/12\10-8-8-10-8~~----------|
D|---------------------------------------------------------------------------|
A|---------------------------------------------------------------------------|
E|---------------------------------------------------------------------------|

Verse twice without riff

Pre-Chorus


[Chorus]

...with me
e|-15h16p15-13-11-------11~~\--------|
B|----------------11-13--------------|
G|--------------------------------8~-|
D|--------------------------------8~-|
A|--------------------------------6~-|
E|-----------------------------------|


[Solo]

e|-15-15-15-13-11~-11~--11-11-11--11-11-11-10-8~-8~--------------------------8---------------------------8---|
B|-------------------------------------------------------------11-8------------8-----------11-8------------8-|
G|----------------------------------------------------8-8-10-8------8-8-10-8------8-8-10-8------8-8-10-8-----|
D|-----------------------------------------------------------------------------------------------------------|
A|-----------------------------------------------------------------------------------------------------------|
E|-----------------------------------------------------------------------------------------------------------|

e|-15-15-15-13-11~-11~--11-11-11--11-11-11-10-8~-8~-8-8-8---15-15-15-16-15~-15~-16-16-16-15-13~--|
B|-----------------------------------------------------------------------------------------------|
G|-----------------------------------------------------------------------------------------------|
D|-----------------------------------------------------------------------------------------------|
A|-----------------------------------------------------------------------------------------------|
E|-----------------------------------------------------------------------------------------------|


[Bridge]

e|---------------------------8-------------------------------------|
B|-----------------------------8----------------9~---8-8h9p8-6~----|
G|----------------8~-------------8------------8--------------------|
D|-8~---10~--6~---8~---8-10--------10-8----10----------------------|
A|-8~---10~--6~---6~---8-10-------------11-------------------------|
E|-6~---8~---4~--------6-8-----------------------------------------|

Chorus


[Outro]

e|---------------------------------------------------------------------|
B|---------------------------------------------------------------------|
G|-8-8-10-8-10/12\10-8-8-10-8-10/12\10-8-8-10-8-10/12\10-12-12-10-8~---|
D|---------------------------------------------------------------------| x2
A|---------------------------------------------------------------------|
E|---------------------------------------------------------------------|

e|---------------------------------------------------|
B|---------8h9p8~-11/13p11-------------8h9p8-8-------|
G|----8-10-----------------12-----8-10---------10-8~-|
D|-10--------------------------10--------------------| x3
A|---------------------------------------------------|
E|---------------------------------------------------|

e|---------------------------------------------------------|
B|---------8h9p8~-11/13p11-------------8h9p8-----8-10-8~---|
G|----8-10-----------------12-----8-10-------\10-----------|
D|-10--------------------------10--------------------------| 
A|---------------------------------------------------------|
E|---------------------------------------------------------|            
Submit corrections

↑ Back to top | Tablatures and chords for acoustic guitar and electric guitar, ukulele, drums are parodies/interpretations of the original songs. You may use it for private study, scholarship, research or language learning purposes only