Home » B » Big Bang »

Big Bang - Make Love Tabs

Artists:  A B C D E F G H I J K L M N O P Q R S T U V W X Y Z # 

Make Love Tabs

(ver. 1) Click to play this song!
Big Bang
Big Bang - Make Love
Standard tuning
Capo on 1st fret

It sounds the same when played along with Tae Yang's version of Make Love.

Main riff / Intro :
e------------------------------------------------------------------------------------|
A---0---1--0---0~----0---1--0---0~----0---1~--0---1~--0---1~---0---------------------|
G-----0------0----------0------0----------0---------0-------0---------0--------------|
D----------------------------------------------------------------------------0~------|
B----------------------------------------0-------------------------------------------|
E-1------------------3---------------------------------------------------------------|

---0---1--0---0~----0---1--0---0~----0---1~--0---1~--0----1---0---------------------|
-----0------0----------0------0----------0---------0-------0--2---0-----------------|
----------------------------------------0-------------------------------------------|
-1------------------3---------------------------------------------------------------|

Verse

-----1-0---------1-0-----------1-0---1-0----1-0------------------------------------|
-----0-0--------0-0-----------0-0---0-0----0-0-------------------------------------|
---------------------------0-------------------------------------------------------|
-1-x-----x---3-x-----x-------x------x------x---------------------------------------|

For Pre chorus and Chorus, just play around with F,G and Am.

x = slap
~ = let ring
            
Submit corrections

↑ Back to top | Tablatures and chords for acoustic guitar and electric guitar, ukulele, drums are parodies/interpretations of the original songs. You may use it for private study, scholarship, research or language learning purposes only