Home » B » Big Bang »

Big Bang - Loser Bass

Artists:  A B C D E F G H I J K L M N O P Q R S T U V W X Y Z # 

Loser Bass

(ver. 1) Click to play this song!
Big Bang
Tuning:EADG

G|-------------------------------------------------------------------------------|
D|-1-----1-1-1-1-----------------------------------------------------------------|
A|------1-----------1--------------1-2-3-----3-3--3-2-1-----1-2-3----------------|
E|---------------------4---4-4-4----------4--------------------------------------|

TOP part


G|-----------------------------|
D|-1---------------------------|
A|------------3-----1----------|
E|------4----------------------|            
Submit corrections

↑ Back to top | Tablatures and chords for acoustic guitar and electric guitar, ukulele, drums are parodies/interpretations of the original songs. You may use it for private study, scholarship, research or language learning purposes only