Home » B » Big Bang »

Big Bang - Bang Bang Bang Tabs

Artists:  A B C D E F G H I J K L M N O P Q R S T U V W X Y Z # 

Bang Bang Bang Tabs

(ver. 1) Click to play this song!
Big Bang
Intro
e|---------------------------------------------------------------------------|
B|---------------------------------------------------------------------------|
G|---------------------------------------------------------------------------|
D|----------------3--3-------------------------------------------------------|
A|-3-3--3-3---6----------6---5--3---3--1------3------------------------------|  (x2)
E|-----------------------------------------3---------------------------------|

Verse (1st one & 2nde one are the same)
e|---------------------------------------------------------------------------|
B|-6-6-6--8-----------------------6-6-6--8---------------------4-------------|
G|--------------5--5--3--5--3--5----------------5--5--3--5--3----------------|
D|--------------------------1------------------------------------------------|
A|--------3-----3------------------------3-----------------------------------|
E|---3-3----------------------------3-3------------3-----------1-------------|

e|---------------------------------------------------------------------------|
B|-6-6-6--8---------------------- 6-6-6--8---8-8--6--4--6--4-----------------|
G|------------5-5-3-5-5-3-3-5-5----------------------------------------------|
D|---------------------------------------------------------------------------|
A|--------3------------------------------3-----------------------------------|
E|---3-3----------------------------3-3--------------------------------------|

(The tab of this verse's part is the intrumental sound, because of GD's rap it was
kind of impossible to recreate his rap fingerstyle...)
e|---------------------------------------------------------------------------|
B|-------------4--4----------------------------------------------------------|
G|-5--0--5--5--------1--1--1--1--0--0----------------------------------------|  (x4)
D|---------------------------------------------------------------------------| 
A|---------------------------------------------------------------------------|
E|---------------------------------------------------------------------------|

Pre-Chorus
e|---------------------------------------------------------------------------|
B|---------4--4--3---6--6--6--6--4--6---6--8--8--6--4--6--8--8--8--6--4--4---|
G|-0--0-5--------------------------------------------------------------------|
D|---------------------------------------------------------------------------|
A|---------------------------------------------------------------------------|
E|---------------------------------------------------------------------------|

e|---------------------------------------------------------------------------|
B|-8--8--6--4--6--8--8--6--4--4----------------------------------------------|
G|-------------------------------5-------------------------------------------|
D|---------------------------------------------------------------------------|
A|---------------------------------------------------------------------------|
E|---------------------------------------------------------------------------|
            
Submit corrections

↑ Back to top | Tablatures and chords for acoustic guitar and electric guitar, ukulele, drums are parodies/interpretations of the original songs. You may use it for private study, scholarship, research or language learning purposes only