» » »

Big And Rich - Saved Tabs

Artists:  A B C D E F G H I J K L M N O P Q R S T U V W X Y Z # 

Saved Tabs

(ver. 3) Click to play this song!
Big And Rich
 Rating:
4/5 (4 votes)

 Saved lessons Tabs too difficult? Try these video lessons and learn fast
 
                Big and Rich  -  Saved
Intro

Regarding the notes in (0), I'm not sure that they are played but I think they sound okay.
It sounds to me like there may be different variations of this part (#    #) throughout the song, 
or I've gone crazy and am hearing things(more than likely). LOL

            #     #
e|----------------------------------------------------|
B|----------------------------------------------------|
G|----------------------------------------------------|
D|------------0----5--5--4--0-------------------------|
A|--4s5--5--3--(0)-------------3----2----2h3p2--------|
D|----------------------------------------------3-----|

            #     #
e|----------------------------------------------------|
B|----------------------------------------------------|
G|----------------------------------------------------|
D|------------0----5--5--4--0-------------------------|
A|--4s5--5--3--(0)-------------3----2----2h3p2--------|
D|----------------------------------------------3---0-|


Let me know what you think!
comments, corrections, etc.
17champ at adelphia.net
            
Submit corrections


        Saved lessons Hard to play? Try these video lessons and learn fast Saved lessons
        
↑ Back to top | Tablatures and chords for acoustic guitar and electric guitar, ukulele, drums are parodies/interpretations of the original songs. You may use it for private study, scholarship, research or language learning purposes only