» » »

Big And Rich - Rollin Tabs

Artists:  A B C D E F G H I J K L M N O P Q R S T U V W X Y Z # 

Rollin Tabs

(ver. 2) Click to play this song!
Big And Rich
 Rating:
4/5 (4 votes)

 Rollin lessons Tabs too difficult? Try these video lessons and learn fast
 
                Rollin                                      
Big Kenny, John Rich




                                                                     
E||--------------------------------|--------------------------------|
B||--3--3--------------------------|--3--3--------------------------|
G||--2--2--------------------------|--2--2--------------------5-6-7-|
D||--0--0--3p0-0-5p0-0-3p0-0-------|--0--0--3p0-0-5p0-0-3p0-0-------|
A||--------------------------3-4-5-|--------------------------------|
E||--------------------------------|--------------------------------|


                                                                  
--------------------------------|--------------------------------|
--3--3--------------------------|--3--3--------------------------|
--2--2--------------------------|--2--2--------------------5-6-7-|
--0--0--3p0-0-5p0-0-3p0-0-------|--0--0--3p0-0-5p0-0-3p0-0-------|
--------------------------3-4-5-|--------------------------------|
--------------------------------|--------------------------------|


                                                                             
--2----2----x-x-1--1----|--x-x-3--3----x-x-1--1----|--2----2----x-x-1--1----|
--3----3----x-x-1--1----|--x-x-3--3----x-x-3--3----|--3----3----x-x-1--1----|
--2----2----x-x-2--2----|--x-x-0--0----x-x-3--3----|--2----2----x-x-2--2----|
--0----0----x-x-3--3----|--x-x-0--0----x-x-3--3----|--0----0----x-x-3--3----|
----------------3--3----|--x-x-2--2----x-x-1--1----|----------------3--3----|
------------------------|------3--3----x-x-1--1----|------------------------|


                                                      
--x-x-3--3----x-x-1--1----|--x-x-2--2----x-x-1--1----|
--x-x-3--3----x-x-3--3----|--x-x-3--3----x-x-1--1----|
--x-x-0--0----x-x-3--3----|--x-x-2--2----x-x-2--2----|
--x-x-0--0----x-x-3--3----|--x-x-0--0----x-x-3--3----|
--x-x-2--2----x-x-1--1----|--x-x-------------3--3----|
------3--3----x-x-1--1----|--------------------------|


                                                      
--x-x-3--3----x-x-1--1----|--x-x-2--2----x-x-1--1----|
--x-x-3--3----x-x-1--1----|--x-x-3--3----x-x-1--1----|
--x-x-0--0----x-x-2--2----|--x-x-2--2----x-x-2--2----|
--x-x-0--0----x-x-3--3----|--x-x-0--0----x-x-3--3----|
--x-x-2--2----x-x-3--3----|--x-x-------------3--3----|
------3--3----x-x---------|--------------------------|


                                                      
--x-x-3--3----x-x-3--3----|--x-x-2--2----x-x-1--1----|
--x-x-3--3----x-x-3--3----|--x-x-3--3----x-x-1--1----|
--x-x-0--0----x-x-0--0----|--x-x-2--2----x-x-2--2----|
--x-x-0--0----x-x-0--0----|--x-x-0--0----x-x-3--3----|
--x-x-2--2----x-x-2--2----|--x-x-------------3--3----|
------3--3----x-x-3--3----|--------------------------|


                                                      
--x-x-3--3----x-x-1--1----|--x-x-2--2----x-x-1--1----|
--x-x-3--3----x-x-1--1----|--x-x-3--3----x-x-1--1----|
--x-x-0--0----x-x-2--2----|--x-x-2--2----x-x-2--2----|
--x-x-0--0----x-x-3--3----|--x-x-0--0----x-x-3--3----|
--x-x-2--2----x-x-3--3----|--x-x-------------3--3----|
------3--3----x-x---------|--------------------------|


                                                                               
--x-x-3--3----x-x-3--3----|--x-x-2--2----x-x-1--1----|--x-x-3--3----1----0----|
--x-x-3--3----x-x-3--3----|--x-x-3--3----x-x-1--1----|--x-x-3--3----3----1----|
--x-x-0--0----x-x-0--0----|--x-x-2--2----x-x-2--2----|--x-x-0--0----3----0----|
--x-x-0--0----x-x-0--0----|--x-x-0--0----x-x-3--3----|--x-x-0--0----3----2----|
--x-x-2--2----x-x-2--2----|--x-x-------------3--3----|--x-x-2--2----1----3----|
------3--3----x-x-3--3----|--------------------------|------3--3----1---------|


                                                                               
--x-x-2--2----x-x-1--1----|--x-x-3--3----1----0----|--x-x-2--2----x-x-1--1----|
--x-x-3--3----x-x-1--1----|--x-x-3--3----3----1----|--x-x-3--3----x-x-1--1----|
--x-x-2--2----x-x-2--2----|--x-x-0--0----3----0----|--x-x-2--2----x-x-2--2----|
--x-x-0--0----x-x-3--3----|--x-x-0--0----3----2----|--x-x-0--0----x-x-3--3----|
--x-x-------------3--3----|--x-x-2--2----1----3----|--x-x-------------3--3----|
--------------------------|------3--3----1---------|--------------------------|


                                                          
--x-x-3--3----1----1----|--------------------------------|
--x-x-3--3----3----3----|--3--3--------------------------|
--x-x-0--0----3----3----|--2--2--------------------------|
--x-x-0--0----3----3----|--0--0--3p0-0-5p0-0-3p0-0-------|
--x-x-2--2----1----1----|--------------------------3-4-5-|
------3--3----1----1----|--------------------------------|


                                                          
--------------------------------|--2----2----x-x-1--1----|
--3--3--------------------------|--3----3----x-x-1--1----|
--2--2--------------------5-6-7-|--2----2----x-x-2--2----|
--0--0--3p0-0-5p0-0-3p0-0-------|--0----0----x-x-3--3----|
--------------------------------|----------------3--3----|
--------------------------------|------------------------|


                                                      
--x-x-3--3----x-x-1--1----|--x-x-2--2----x-x-1--1----|
--x-x-3--3----x-x-1--1----|--x-x-3--3----x-x-1--1----|
--x-x-0--0----x-x-2--2----|--x-x-2--2----x-x-2--2----|
--x-x-0--0----x-x-3--3----|--x-x-0--0----x-x-3--3----|
--x-x-2--2----x-x-3--3----|--x-x-------------3--3----|
------3--3----x-x---------|--------------------------|


                                                      
--x-x-3--3----x-x-1--1----|--x-x-2--2----x-x-1--1----|
--x-x-3--3----x-x-1--1----|--x-x-3--3----x-x-1--1----|
--x-x-0--0----x-x-2--2----|--x-x-2--2----x-x-2--2----|
--x-x-0--0----x-x-3--3----|--x-x-0--0----x-x-3--3----|
--x-x-2--2----x-x-3--3----|--x-x-------------3--3----|
------3--3----x-x---------|--------------------------|


                                                      
--x-x-3--3----x-x-3--3----|--x-x-2--2----x-x-1--1----|
--x-x-3--3----x-x-3--3----|--x-x-3--3----x-x-1--1----|
--x-x-0--0----x-x-0--0----|--x-x-2--2----x-x-2--2----|
--x-x-0--0----x-x-0--0----|--x-x-0--0----x-x-3--3----|
--x-x-2--2----x-x-2--2----|--x-x-------------3--3----|
------3--3----x-x-3--3----|--------------------------|


                                                      
--x-x-3--3----x-x-1--1----|--x-x-2--2----x-x-1--1----|
--x-x-3--3----x-x-1--1----|--x-x-3--3----x-x-1--1----|
--x-x-0--0----x-x-2--2----|--x-x-2--2----x-x-2--2----|
--x-x-0--0----x-x-3--3----|--x-x-0--0----x-x-3--3----|
--x-x-2--2----x-x-3--3----|--x-x-------------3--3----|
------3--3----x-x---------|--------------------------|


                                                                               
--x-x-3--3----x-x-3--3----|--x-x-2--2----x-x-1--1----|--x-x-3--3----1----0----|
--x-x-3--3----x-x-3--3----|--x-x-3--3----x-x-1--1----|--x-x-3--3----3----1----|
--x-x-0--0----x-x-0--0----|--x-x-2--2----x-x-2--2----|--x-x-0--0----3----0----|
--x-x-0--0----x-x-0--0----|--x-x-0--0----x-x-3--3----|--x-x-0--0----3----2----|
--x-x-2--2----x-x-2--2----|--x-x-------------3--3----|--x-x-2--2----1----3----|
------3--3----x-x-3--3----|--------------------------|------3--3----1---------|


                                                                               
--x-x-2--2----x-x-1--1----|--x-x-3--3----1----0----|--x-x-2--2----x-x-1--1----|
--x-x-3--3----x-x-1--1----|--x-x-3--3----3----1----|--x-x-3--3----x-x-1--1----|
--x-x-2--2----x-x-2--2----|--x-x-0--0----3----0----|--x-x-2--2----x-x-2--2----|
--x-x-0--0----x-x-3--3----|--x-x-0--0----3----2----|--x-x-0--0----x-x-3--3----|
--x-x-------------3--3----|--x-x-2--2----1----3----|--x-x-------------3--3----|
--------------------------|------3--3----1---------|--------------------------|


                                                          
--x-x-3--3----1----1----|-
            
Submit corrections


        Rollin lessons Hard to play? Try these video lessons and learn fast Rollin lessons
        
↑ Back to top | Tablatures and chords for acoustic guitar and electric guitar, ukulele, drums are parodies/interpretations of the original songs. You may use it for private study, scholarship, research or language learning purposes only