» » »

Big And Rich - Never Mind Me Tabs

Artists:  A B C D E F G H I J K L M N O P Q R S T U V W X Y Z # 

Never Mind Me Tabs

(ver. 2) Click to play this song!
Big And Rich
 Rating:
4/5 (4 votes)

 Never Mind Me lessons Tabs too difficult? Try these video lessons and learn fast
 
                "

Light Palm Mute through out

E
B
G------------------------------------- ---------------------------------------
D----------7--10--9--7--9------------- -------7---10---9--7---9---------------
A--7--10--------------------10-------- --10-----------------------10---------- Repeat Second part
E--------------------------------10--- -------------------------------10------



OR 


E|---------------
B|-----1-0--0----
G|-0-2----2---0--
D|--------------0
A|---------------
E|---------------


Personally, the first one is more fun to play and looks sweet while playing it (be sure to use your pinky)




Submitted 4-18-06
Garrow - Madison, WI
"            
Submit corrections


        Never Mind Me lessons Hard to play? Try these video lessons and learn fast Never Mind Me lessons
        
↑ Back to top | Tablatures and chords for acoustic guitar and electric guitar, ukulele, drums are parodies/interpretations of the original songs. You may use it for private study, scholarship, research or language learning purposes only