» » »

Big And Rich - Live This Life Tabs

Artists:  A B C D E F G H I J K L M N O P Q R S T U V W X Y Z # 

Live This Life Tabs

(ver. 2) Click to play this song!
Big And Rich
 Rating:
4.2/5 (5 votes)

 Live This Life lessons Tabs too difficult? Try these video lessons and learn fast
 
                (Intro)
e------------------------------------------------------------|
B------------------------------------------------------------|
G---------------------4-------------4----------------4-------|
D--------4---------2-----2------2------2---------2------2----|
A---2h4-----4---0-----------------------------2--------------|
E--2--------------------------0------------------------------|

e------------------------------------------------------------|
B------------------------------------------------------------|
G-----------------------4-----------4------4-----------------|
D---------4---------2------2----2------2---4-----------------|
A----2h4-----4---0-------------------------2-----------------|
E--2--------------------------0------------------------------|

That's how it is. uhhhh bye
            
Submit corrections


        Live This Life lessons Hard to play? Try these video lessons and learn fast Live This Life lessons
        
↑ Back to top | Tablatures and chords for acoustic guitar and electric guitar, ukulele, drums are parodies/interpretations of the original songs. You may use it for private study, scholarship, research or language learning purposes only