» » »

Bic Runga - No Crying No More Tabs

Artists:  A B C D E F G H I J K L M N O P Q R S T U V W X Y Z # 

No Crying No More Tabs

(ver. 2) Click to play this song!
Bic Runga
 Rating:
4/5 (4 votes)

 No Crying No More lessons Tabs too difficult? Try these video lessons and learn fast
 
                FIG 1
E-------------------------------0--------------------------------------------------------|
B---------------0--3-----3---3-----0----0----0-------------------------------------------|
G-----0--2--0--------------------------------------0--2--0---3--0--0---------------------|
D----------------------------------------------------------------------0--2---0---0---0--|
A----------------------------------------------------------------------------------------|
E--3---3---3---3---3---3---3---3---3----3----3----3----3----3----3---3---3------3---3--3-|

FIG 2
E-------------------------------0--------------------------------------------------------|
B---------------0--3-----3---3-----0----0----0-------------------------------------------|
G-----0--2--0--------------------------------------0--2--0---3--0--0----------0---0---0--|
D----------------------------------------------------------------------0--2--------------|
A----------------------------------------------------------------------------------------|
E--3---3---3---3---3---3---3---3---3----3----3----3----3----3----3---3---3------3---3--3-|

FIG 1 (repeat of above)
E-------------------------------0--------------------------------------------------------|
B---------------0--3-----3---3-----0----0----0-------------------------------------------|
G-----0--2--0--------------------------------------0--2--0---3--0--0---------------------|
D----------------------------------------------------------------------0--2---0---0---0--|
A----------------------------------------------------------------------------------------|
E--3---3---3---3---3---3---3---3---3----3----3----3----3----3----3---3---3------3---3--3-|

FIG 2 (repeat of above)
E-------------------------------0--------------------------------------------------------|
B---------------0--3-----3---3-----0----0----0-------------------------------------------|
G-----0--2--0--------------------------------------0--2--0---3--0--0----------0---0---0--|
D----------------------------------------------------------------------0--2--------------|
A----------------------------------------------------------------------------------------|
E--3---3---3---3---3---3---3---3---3----3----3----3----3----3----3---3---3------3---3--3-|

Chorus, strummed chords

  B7       Em        Em/F#    G        Am      Em        D       D7
E---2-2------0-0-------0-0------3-3------0-0------0-0------2-2------2-2----|
B---0-0------0-0-------0-0------0-0------1-1------0-0------3-3------1-1----|
G---2-2------0-0-------0-0------0-0------2-2------0-0------2-2------2-2----|
D---1-1------2-2-------2-2------0-0------2-2------2-2----0-0-0----0-0-0----|
A-2-2-2------2-2-------0-0------2-2----0-0-0------2-2------x-x------x-x----|
E---x-x----0-0-0-----2-2-2----3-3-3------x-x----0-0-0------x-x------x-x----|

Chorus Outro Riff


E--3--1-------------------------|
B--------3---1--0---------------|
G------------------0-----0------|
D-------------------------------|
A-------------------------------|
E--3--3--3---3--3-----3-----3---|


FIG 1
E-------------------------------0--------------------------------------------------------|
B---------------0--3-----3---3-----0----0----0-------------------------------------------|
G-----0--2--0--------------------------------------0--2--0---3--0--0---------------------|
D----------------------------------------------------------------------0--2---0---0---0--|
A----------------------------------------------------------------------------------------|
E--3---3---3---3---3---3---3---3---3----3----3----3----3----3----3---3---3------3---3--3-|

FIG 3 (Same as FIG 2 with different ending)
E-------------------------------0--------------------------------------------------------|
B---------------0--3-----3---3-----0----0----0-------------------------------------------|
G-----0--2--0--------------------------------------0--2--0---3--0--0-----3---1---0--0--0-|
D----------------------------------------------------------------------------------------|
A----------------------------------------------------------------------------------------|
E--3---3---3---3---3---3---3---3---3----3----3----3----3----3----3---3---3---3---3--3--3-|

FIG 4 (Outro riff)
E---------------------------------|
B---------------------------------|
G-----0--2--0---3--0--0--------0--|
D------------------------0--2-----|
A---------------------------------|
E--3---3---3---3---3---3---3------|            
Submit corrections


        No Crying No More lessons Hard to play? Try these video lessons and learn fast No Crying No More lessons
        
↑ Back to top | Tablatures and chords for acoustic guitar and electric guitar, ukulele, drums are parodies/interpretations of the original songs. You may use it for private study, scholarship, research or language learning purposes only