Home » B » BöHse Onkelz »

BöHse Onkelz - Wenn Wir Einmal Engel Sind Tabs

Artists:  A B C D E F G H I J K L M N O P Q R S T U V W X Y Z # 

Wenn Wir Einmal Engel Sind Tabs

(ver. 1) Click to play this song!
BöHse Onkelz
[Intro]
Guitar I  
      (2x)
e|---|------------------------------------------------------------------------|
B|---|------------------------------------------------------------------------|
G|---|------------------------------------------------------------------------|
D|---|--6-7-6---6-7-6---6-7-6---6-7-6-----------------------------------------|
A|---|-7-------7-------7-------7----------------------------------------------|
E|-\-|------------------------------------------------------------------------|

Guitar II
e|---------------------------------------------------------------------------|
B|---------------------------------------------------------------------------|
G|-1--2--4--9--2--4----------------------------------------------------------|
D|-2--2--4--9--2--4----------------------------------------------------------|
A|-2--0--2--7--0--2----------------------------------------------------------|
E|-0-------------------------------------------------------------------------|

[Verse]
  (4x)
e|---------------------------------------------------------------------------|
B|---------------------------------------------------------------------------|
G|-9------------------------------------2--4---------------------------------|
D|-9--------------------------7-6-4-6-4-2--4---------------------------------|
A|-7-7-7-7-7-7-7------------------------0--2---------------------------------|
E|---------------------------------------------------------------------------|

e|---------------------------------------------------------------------------|
B|---------------------------------------------------------------------------|
G|-6-6-6-6-6--4-2-2-2-2-2--4-6-6-6-6-6--2-4-4-4-4-4-4-4----------------------|
D|-6-6-6-6-6--4-2-2-2-2-2--4-6-6-6-6-6--2-4-4-4-4-4-4-4----------------------|
A|-4-4-4-4-4--2-0-0-0-0-0--2-4-4-4-4-4--0-2-2-2-2-2-2-2----------------------|
E|---------------------------------------------------------------------------|

[Chorus]
Guitar I  
  (16x)
e|-------------------------------------------------------------------------|
B|-------------------------------------------------------------------------|
G|-------------------------------------------------------------------------|
D|---6-7-6---6-7-6---6-7-6---6-7-6-----------------------------------------|
A|--7-------7-------7-------7----------------------------------------------|
E|-------------------------------------------------------------------------|

Guitar II
e|---------------------------------------------------------------------------|
B|---------------------------------------------------------------------------|
G|-1--2--4--9--2--4---1--2--4--9--2--4--6-6-6-6-6-6-6-6-6-6-6----------------|
D|-2--2--4--9--2--4---2--2--4--9--2--4--6-6-6-6-6-6-6-6-6-6-6----------------|
A|-2--0--2--7--0--2---2--0--2--7--0--2--4-4-4-4-4-4-4-4-4-4-4----------------|
E|-0------------------0------------------------------------------------------|

Guitar I  
      (2x)
e|-------------------------------------------------------------------------|
B|-------------------------------------------------------------------------|
G|-------------------------------------------------------------------------|
D|---6-7-6---6-7-6---6-7-6---6-7-6-----------------------------------------|
A|--7-------7-------7-------7----------------------------------------------|
E|-------------------------------------------------------------------------|

Guitar II
e|---------------------------------------------------------------------------|
B|---------------------------------------------------------------------------|
G|-1--2--4--9--2--4----------------------------------------------------------|
D|-2--2--4--9--2--4----------------------------------------------------------|
A|-2--0--2--7--0--2----------------------------------------------------------|
E|-0-------------------------------------------------------------------------|

[Verse 2]
 (4x)
e|---------------------------------------------------------------------------|
B|---------------------------------------------------------------------------|
G|-9------------------------------------2--4---------------------------------|
D|-9--------------------------7-6-4-6-4-2--4---------------------------------|
A|-7-7-7-7-7-7-7------------------------0--2---------------------------------|
E|---------------------------------------------------------------------------|

e|---------------------------------------------------------------------------|
B|---------------------------------------------------------------------------|
G|-6-6-6-6-6--4-2-2-2-2-2--4-6-6-6-6-6--2-4-4-4-4-4-4-4----------------------|
D|-6-6-6-6-6--4-2-2-2-2-2--4-6-6-6-6-6--2-4-4-4-4-4-4-4----------------------|
A|-4-4-4-4-4--2-0-0-0-0-0--2-4-4-4-4-4--0-2-2-2-2-2-2-2----------------------|
E|---------------------------------------------------------------------------|

[Chorus]
Guitar I  
  (16x)
e|-------------------------------------------------------------------------|
B|-------------------------------------------------------------------------|
G|-------------------------------------------------------------------------|
D|---6-7-6---6-7-6---6-7-6---6-7-6-----------------------------------------|
A|--7-------7-------7-------7----------------------------------------------|
E|-------------------------------------------------------------------------|

Guitar II
e|---------------------------------------------------------------------------|
B|---------------------------------------------------------------------------|
G|-1--2--4--9--2--4---1--2--4--9--2--4--6-6-6-6-6-6-6-6-6-6-6----------------|
D|-2--2--4--9--2--4---2--2--4--9--2--4--6-6-6-6-6-6-6-6-6-6-6----------------|
A|-2--0--2--7--0--2---2--0--2--7--0--2--4-4-4-4-4-4-4-4-4-4-4----------------|
E|-0------------------0------------------------------------------------------|

[Bridge]
e|---------------------------------------------------------------------------|
B|---------------------------------------------------------------------------|
G|----------------------------------4----------------------------------------|
D|-7-6-4-6-4--7-6-4-6-4--7-6-4-6-4--4----------------------------------------|
A|----------------------------------2----------------------------------------|
E|---------------------------------------------------------------------------|

[Guitar Solo]
e|------------------------------------------------------------------------------------------|
B|-------------------10-12-10-12-10----12-14-12-----------------10-12-10-12-10-----12-14-12-|
G|-----------------/9---------------/11-----------------------/9---------------/11----------|
D|--6-7-9-6-6-9-9--------------------------------9-6---6-9-9--------------------------------|
A|-7----7--9--7-7--------------------------------7---9---7-7--------------------------------|
E|------------------------------------------------------------------------------------------|

e|----------------------------------------------------------------------------------------|
B|-15b17br-12------------------------------------------15-------15------------------------|
G|------------14b16br-12----------12-12-------12-14b16----14b16----14b16-12---------------|
D|-----------------------14-12-14--------12-14------------------------------14-12-14------|
A|----------------------------------------------------------------------------------------|
E|----------------------------------------------------------------------------------------|

e|----------------------------------------15b17br-12----------------------------------------|
B|-15----15----15------------------------------------15b17br-12-----------------------------|
G|-17b19-17b19-17b19--14-14----12-------------------------------14b16br-12------------------|
D|--------------------------14---14-12-14----------------------------------14-12--12-14-11~-|
A|------------------------------------------------------------------------------14----------|
E|------------------------------------------------------------------------------------------|

[Pre Chorus]
e|---------------------------------------------------------------------------|
B|---------------------------------------------------------------------------|
G|-6-6-6-6-6--4-2-2-2-2-2--4-6-6-6-6-6--2-4-4-4-4-4-4-4----------------------|
D|-6-6-6-6-6--4-2-2-2-2-2--4-6-6-6-6-6--2-4-4-4-4-4-4-4----------------------|
A|-4-4-4-4-4--2-0-0-0-0-0--2-4-4-4-4-4--0-2-2-2-2-2-2-2----------------------|
E|---------------------------------------------------------------------------|

[Outro]
Guitar I  
  (28x)
e|-------------------------------------------------------------------------|
B|-------------------------------------------------------------------------|
G|-------------------------------------------------------------------------|
D|---6-7-6---6-7-6---6-7-6---6-7-6-----------------------------------------|
A|--7-------7-------7-------7----------------------------------------------|
E|-------------------------------------------------------------------------|

Guitar II
(4x)
e|-------------------------------------|
B|-------------------------------------|
G|-1--2--4--9--2--4--------------------|
D|-2--2--4--9--2--4--------------------|
A|-2--0--2--7--0--2--------------------|
E|-0-----------------------------------|
            
Submit corrections

↑ Back to top | Tablatures and chords for acoustic guitar and electric guitar, ukulele, drums are parodies/interpretations of the original songs. You may use it for private study, scholarship, research or language learning purposes only