Home » B » BöHse Onkelz »

BöHse Onkelz - Nach Allen Regeln Der Sucht Tabs

Artists:  A B C D E F G H I J K L M N O P Q R S T U V W X Y Z # 

Nach Allen Regeln Der Sucht Tabs

(ver. 1) Click to play this song!
BöHse Onkelz
[Intro]
  Guitar I:
  (8x)
e|---------------------------------------------------------------------------|
B|---------------------------------------------------------------------------|
G|---------------------------------------------------------------------------|
D|---------------7-8----------7--5------------------7-8----------7-8-7-------|
A|-5-5-7-8---5-5------5-5-7-8--8--7----5-5-7-8--5-5------5-5-7-8-------------|
E|---------------------------------------------------------------------------|

  Guitar II:
  (8x)
e|-------------------------------------------------------------------------------------------------|
B|-------------------------------------------------------------------------------------------------|
G|-------------------------------------------------------------------------------------------------|
D|-------------------------------------------------------------------------------------------------|
A|-12-12-12-12-12-12-12-12-12-12-12-12-12-12-12-12-12-12-12-12-12-12-12-12-12-12-12-12-12-12-12-12-|
E|-10-10-10-10-10-10-10-10-10-10-10-10-10-10-10-10-8--8--8--8--8--8--8--8--8--8--8--8--8--8--8--8--|

[Verse]
  Guitar I:
  (4x)
e|---------------------------------------------------------------------------|
B|---------------------------------------------------------------------------|
G|---------------------------------------------------------------------------|
D|---------------7-8----------7--5------------------7-8----------7-8-7-------|
A|-5-5-7-8---5-5------5-5-7-8--8--7----5-5-7-8--5-5------5-5-7-8-------------|
E|---------------------------------------------------------------------------|

  Guitar II:
e|-------------------------------------------------------------------------------------------------|
B|-------------------------------------------------------------------------------------------------|
G|-------------------------------------------------------------------------------------------------|
D|-------------------------------------------------------------------------------------------------|
A|-12-12-12-12-12-12-12-12-12-12-12-12-12-12-12-12-12-12-12-12-12-12-12-12-12-12-12-12-12-12-12-12-|
E|-10-10-10-10-10-10-10-10-10-10-10-10-10-10-10-10-8--8--8--8--8--8--8--8--8--8--8--8--8--8--8--8--|

e|-------------------------------------------------------------------------------------------------|
B|-------------------------------------------------------------------------------------------------|
G|-------------------------------------------------------------------------------------------------|
D|-------------------------------------------------------------------------------------------------|
A|-12-12-12-12-12-12-12-12-12-12-12-12-12-12-12-12-12-12-12-12-12-12-12-12-12-12-12-8-8-8-8-8------|
E|-10-10-10-10-10-10-10-10-10-10-10-10-10-10-10-10-8--8--8--8--8--8--8--8--8--8--8--8-8-8-8-8------|

[Chorus]
  Guitar I:
  (16x)
e|-------0-------------------------------------------------------------------|
B|-----6---6-----------------------------------------------------------------|
G|---7-------7---------------------------------------------------------------|
D|-7-------------------------------------------------------------------------|
A|---------------------------------------------------------------------------|
E|---------------------------------------------------------------------------|

e|-------------||----------------------||-------------||--------------------------------------------|
B|-------------||-------------10-------||-------------||--------------------10-11-10----------------|
G|-------10----||-------10-------------||-------10----||-------10--------------------12-10----------|
D|-10-12----12-||-10-12----12----12-12-||-10-12----12-||-10-12----12-10-12-----------------12-10-12-|
A|-------------||----------------------||-------------||--------------------------------------------|
E|-------------||----------------------||-------------||--------------------------------------------|

 Guitar II:
e|-------------------------------------------------------------------------------------------------|
B|-------------------------------------------------------------------------------------------------|
G|-------------------------------------------------------------------------------------------------|
D|-------------------------------------------------------------------------------------------------|
A|-12-12-12-12-12-12-12-12-12-12-12-12-12-12-12-12-12-12-12-12-12-12-12-12-12-12-12-12-12-12-12-12-|
E|-10-10-10-10-10-10-10-10-10-10-10-10-10-10-10-10-8--8--8--8--8--8--8--8--8--8--8--8--8--8--8--8--|

e|---------------------------------------------------------------------------|
B|---------------------------------------------------------------------------|
G|---------------------------------------------------------------------------|
D|---------------------------------------------------------------------------|
A|-9-9-9-9-9-9-9-9-9-9-9-9-9-9-9-9-8-8-8-8-8-8-8-8-8-8-8-8-8-8-8-8-----------|
E|-7-7-7-7-7-7-7-7-7-7-7-7-7-7-7-7-6-6-6-6-6-6-6-6-6-6-6-6-6-6-6-6-----------|

e|-------------------------------------------------------------------------------------------------|
B|-------------------------------------------------------------------------------------------------|
G|-------------------------------------------------------------------------------------------------|
D|-------------------------------------------------------------------------------------------------|
A|-12-12-12-12-12-12-12-12-12-12-12-12-12-12-12-12-12-12-12-12-12-12-12-12-12-12-12-12-12-12-12-12-|
E|-10-10-10-10-10-10-10-10-10-10-10-10-10-10-10-10-8--8--8--8--8--8--8--8--8--8--8--8--8--8--8--8--|

e|---------------------------------------------------------------------------|
B|---------------------------------------------------------------------------|
G|---------------------------------------------------------------------------|
D|---------------------------------------------------------------------------|
A|-9-9-9-9-9-9-9-9-9-9-9-9-9-9-9-9-8-8-8-8-8-8-8-8-8-8-8-8-8-8-8-8-----------|
E|-7-7-7-7-7-7-7-7-7-7-7-7-7-7-7-7-6-6-6-6-6-6-6-6-6-6-6-6-6-6-6-6-----------|

e|---------------------------------------------------------------------------------|
B|---------------------------------------------------------------------------------|
G|---------------------------------------------------------------------------------|
D|---------------------------------------------------------------------------------|
A|-12-12-12-12-12-12-12-12-12-12-12-12-12-12-12-12-8-8-8-8-8-8-8-8-7-7-7-7-7-7-7-7-|
E|-10-10-10-10-10-10-10-10-8--8--8--8--8--8--8--8--6-6-6-6-6-6-6-6-5-5-5-5-5-5-5-5-|

e|---------------------------------------------------------------------------------|
B|---------------------------------------------------------------------------------|
G|---------------------------------------------------------------------------------|
D|---------------------------------------------------------------------------------|
A|-12-12-12-12-12-12-12-12-12-12-12-12-12-12-12-12-7-7-7-7-7-7-7-7-8-8-8-8-8-8-8-8-|
E|-10-10-10-10-10-10-10-10-8--8--8--8--8--8--8--8--5-5-5-5-5-5-5-5-6-6-6-6-6-6-6-6-|

[Solo]
e|--------------------------12b14-12-10-12-10----10-12-10--------------------|
B|-------10-------10-10b12--------------------12------------12-12p10---------|
G|-11-12-----11-12--------------------------------------------------11-------|
D|---------------------------------------------------------------------------|
A|---------------------------------------------------------------------------|
E|---------------------------------------------------------------------------|

e|---------------------------------------------------------------------------|
B|---------------------------------------------------------------------------|
G|---------------------------------------------------------------------------|
D|---------------------------------------------------------------------------|
A|---------------------------------------------------------------------------|
E|---------------------------------------------------------------------------|

e|---------------------------------------------------------------------------|
B|-17b19-19br17-17-15-17-17b18-15------15-17b19-17b19-19br17-17-15-----------|
G|---------------------------------/16---------------------------------------|
D|---------------------------------------------------------------------------|
A|---------------------------------------------------------------------------|
E|---------------------------------------------------------------------------|

e|---------------------------------------------------------------------------|
B|-13-----15-----17-----15-----13-----10-----15------------------------------|
G|-15b17--17b19--19b21--17b19--15b17--12b14--17b19---------------------------|
D|---------------------------------------------------------------------------|
A|---------------------------------------------------------------------------|
E|---------------------------------------------------------------------------|
            
Submit corrections

↑ Back to top | Tablatures and chords for acoustic guitar and electric guitar, ukulele, drums are parodies/interpretations of the original songs. You may use it for private study, scholarship, research or language learning purposes only