Home » B » BöHse Onkelz »

BöHse Onkelz - Lüge Tabs

Artists:  A B C D E F G H I J K L M N O P Q R S T U V W X Y Z # 

Lüge Tabs

(ver. 1) Click to play this song!
BöHse Onkelz
[Intro + Verse]  (4x)
e|---1-0-1-----1-1-0----1-0-1----1-1-0----------------------------------------|
B|---3-3-3-----3-3-3----3-3-3----3-3-3----------------------------------------|
G|---2-2-2-----2-2-2----2-2-2----2-2-2----------------------------------------|
D|-0--------------------------------------------------------------------------|
A|-----------3-----------------0----------------------------------------------|
E|--------------------3-------------------------------------------------------|

e|---------------------------------------------------------------------------|
B|---------------------------------------------------------------------------|
G|---------------------------------------------------------------------------|
D|-8-8-8-8--3-3-3-3--7-7-7-7-------------------------------------------------|
A|-8-8-8-8--3-3-3-3--7-7-7-7-------------------------------------------------|
E|-6-6-6-6--1-1-1-1--5-5-5-5-------------------------------------------------|

[Chorus]  (2x)
e|---------------------------------------------------------------------------|
B|---------------------------------------------------------------------------|
G|-7-7-7-7--3-3-3-3-----------5-5-5-5----------------------------------------|
D|-7-7-7-7--3-3-3-3--3-3-3-3--5-5-5-5----------------------------------------|
A|-5-5-5-5--1-1-1-1--3-3-3-3--3-3-3-3----------------------------------------|
E|-------------------1-1-1-1-------------------------------------------------|

e|---1-0-1-----1-1-0----1-0-1----1-1-0----------------------------------------|
B|---3-3-3-----3-3-3----3-3-3----3-3-3----------------------------------------|
G|---2-2-2-----2-2-2----2-2-2----2-2-2----------------------------------------|
D|-0--------------------------------------------------------------------------|
A|-----------1-----------------3----------------------------------------------|
E|--------------------1-------------------------------------------------------|            
Submit corrections

↑ Back to top | Tablatures and chords for acoustic guitar and electric guitar, ukulele, drums are parodies/interpretations of the original songs. You may use it for private study, scholarship, research or language learning purposes only