Home » B » BöHse Onkelz »

BöHse Onkelz - Der Schrei Nach Freiheit Bass

Artists:  A B C D E F G H I J K L M N O P Q R S T U V W X Y Z # 

Der Schrei Nach Freiheit Bass

(ver. 1) Click to play this song!
BöHse Onkelz
[Intro]

G|-5-5--7----------5-5--7----------|
D|-7-7--5----------7-7--5----------|
A|---------7-5-7-----------7-5-7-7-| 3x
E|---------------------------------|


[Verse]

G|-5-5--7----------5-5--7----------|
D|-7-7--5----------7-7--5----------|
A|---------7-5-7-----------7-5-7-7-| 4x
E|---------------------------------|

G|---------------------------------------------------------------------------|
D|---------------------------------------------------------------------------|
A|-3-3-3-3-3-3-3-5-0-0-0-0-0-0-0-3-3-3-3-3-3-3-5-0-0-0-0-0-0-0---------------|
E|---------------------------------------------------------------------------|

G|---------------------------------------------------------------------------|
D|---------------------------------------------------------------------------|
A|-3-3-3-3-3-3-0-5-5-5-5-5-5-5-5-7-7-7-7-7-7-7-7-7-7-----5-------------------|
E|---------------------------------------------------5-7---7-5---------------|


[Chorus]

G|---------------------------------------------------------------------------|
D|---------------------------------------------------------------------------|
A|-0-0-0-0-0-0-2-3-3-3-3-3-3-3-3-2-2-2-2-2---3-5-5-5-5-5-5-5-5---------------| 2x
E|-----------------------------------------5---------------------------------|


[Outro]

G|---------------------------------------------------------------------------|
D|---------------------------------------------------------------------------|
A|-0-0-0-0-0-0-2-3-3-3-3-3-3-3-3-2-2-2-2-2---3-5-5-5-5-5-5-5-5---------------| 2x
E|-----------------------------------------5---------------------------------|

G|-----------------------------------------------7-5---7-5---5---------------|
D|---------------------------------------------------5-----7-----------------|
A|-0-0-0-0-0-0-2-3-3-3-3-3-3-3-3-2-2-2-2-2---3-5-----------------------------| 
E|-----------------------------------------5---------------------------------|

G|---------------------------------------------------------------------------|
D|---------------------------------------------------------------------------|
A|-0-0-0-0-0-0-2-3-3-3-3-3-3-3-3-2-2-2-2-2---3-5-5-5-5-5-5-5-5---------------| 
E|-----------------------------------------5---------------------------------|

G|-----------------------------------------------7-5---7-5---5---------------|
D|---------------------------------------------------5-----7-----------------|
A|-0-0-0-0-0-0-2-3-3-3-3-3-3-3-3-2-2-2-2-2---3-5-----------------------------| 
E|-----------------------------------------5---------------------------------|

G|---------------------------------------------------------------------------|
D|---------------------------------------------------------------------------|
A|-0-0-0-0-0-0-2-3-3-3-3-3-3-3-3-2-2-2-2-2---3-5-5-5-5-5-5-5-5---------------| 
E|-----------------------------------------5---------------------------------|

G|---------------------------------------------------------------------------|
D|---------------------------------------------------------------------------|
A|-5---7-5-7--7-5-0----------------------------------------------------------|
E|---------------------------------------------------------------------------|            
Submit corrections

↑ Back to top | Tablatures and chords for acoustic guitar and electric guitar, ukulele, drums are parodies/interpretations of the original songs. You may use it for private study, scholarship, research or language learning purposes only